Eisley - Telescope Eyes Chords & Tabs

 

Telescope Eyes Chords & Tabs

Eisley Chords & Tabs

Version: 2 Type: Chords 0 ratings
1 star 2 stars 3 stars 4 stars 5 stars
comments

Telescope Eyes Chords

   
-------------------------------------------------------------------------------
			Telescope Eyes - Eisley
-------------------------------------------------------------------------------
Tabbed by:Eric Cloutier

Tuning: E Standard Tunning

Chords

Em - 022000		Dsus - 5577xx		Dsus4 - xx0233

Cmaj - 332010		A5 - 5776xx		Dm - xx0231

Bm- 224432		Bsus - 799xxx		Dsus2 - xx0320

G - 320033		Csus2 - x35533		Asus2 - 002200


Intro:

Em Cmaj Bm Cmaj G Em Bm


Riff 1:
(just repeats itself in the verse over and over)

e|----0-------0---|
B|-----7-------7--|
G|------7-------7-|
D|----------------|
A|----------------|
E|-5-5-----7-7----|

Verse 1: Riff 1

Ooh.
You humor me today
Calling me out to play
With your telescope eyes, metal teeth
I can't be seen with you
You see.

Chorus:

(Guitar 1 - Lead)

  Dsus 
Please don't make me cry,

  A5
Please don't make me cry,

  Bsus
I'm just like you, I know you know

  Csus2
I'm just like you so leave me alone


Please don't make me cry,

 Asus2
Please don't make me cry,

  Bm
I'm just like you, I know you know

  Cmaj
I'm just like you so leave me alone


(Guitar 2 - Rhythm)
   Dsus4 Dm Dsus4 Dm Dsus4 Dm Dsus Dm Dsus2
e|---3-3-1---3-3-1---3-3-1---3-3-1-0--|
B|---3-3-1---3-3-3---3-3-3---3-3-3-3--|
G|---2-2-2---2-2-2---2-2-2---2-2-2-2--|
D|---0-0-0---0-0-0---0-0-0---0-0-0-0--|
A|---x-x-x---x-x-x---x-x-x---x-x-x-x--|
E|---x-x-x---x-x-x---x-x-x---x-x-x-x--|
[ Tab from: http://www.guitartabs.cc/tabs/e/eisley/telescope_eyes_crd_ver_2.html ]
     Asus2   Asus2   Asus2   Asus2
e|---0-0-0---0-0-0---0-0-0---0-0-0-0--|
B|---2-2-2---2-2-2---2-2-2---2-2-2-2--|
G|---2-2-2---2-2-2---2-2-2---2-2-2-2--|
D|---0-0-0---0-0-0---0-0-0---0-0-0-0--|
A|---0-0-0---0-0-0---0-0-0---0-0-0-0--|
E|---0-0-0---0-0-0---0-0-0---0-0-0-0--|

     Bm      Bm      Bm      Bm
e|---2-2-2---2-2-2---2-2-2---2-2-2-2--|
B|---3-3-3---3-3-3---3-3-3---3-3-3-3--|
G|---4-4-4---4-4-4---4-4-4---4-4-4-4--|
D|---4-4-4---4-4-4---4-4-4---4-4-4-4--|
A|---2-2-2---2-2-2---2-2-2---2-2-2-2--|
E|---2-2-2---2-2-2---2-2-2---2-2-2-2--|
 
     Cmaj    Cmaj    Cmaj    Cmaj
e|---0-0-0---0-0-0---0-0-0---0-0-0-0--|
B|---1-1-1---1-1-1---1-1-1---1-1-1-1--|
G|---0-0-0---0-0-0---0-0-0---0-0-0-0--|
D|---2-2-2---2-2-2---2-2-2---2-2-2-2--|
A|---3-3-3---3-3-3---3-3-3---3-3-3-3--|
E|---3-3-3---3-3-3---3-3-3---3-3-3-3--|

Verse 2: Riff 1

I wonder why can't you see?
You're just not near enough like me
With your telescope eyes, metal teeth
I can't be seen with you 

Chorus:

Please don't make me cry,
Please don't make me cry,
I'm just like you, I know you know
I'm just like you so leave me alone

Bridge:

Em Cmaj Bm Cmaj G Em Bm

Chorus:

Please don't make me cry,
Please don't make me cry,
I'm just like you, I know you know
I'm just like you so leave me alone

Please don't make me cry,
Please don't make me cry,
I'm just like you, I know you know
I'm just like you so leave me alone

Outro:

Riff 1
Ooh, you humor me today.


| /  slide up
| \  slide down
| h  hammer-on
| p  pull-off
| ~  vibrato
| +  harmonic
| x  Mute note
===============================================================================
Comments