Eisley - I Wasnt Prepared Chords & Tabs

 

I Wasnt Prepared Chords & Tabs

Eisley Chords & Tabs

Version: 1 Type: Bass Tab 0 ratings
1 star 2 stars 3 stars 4 stars 5 stars
comments

I Wasnt Prepared Bass Tab

Eisley
I Wasn't Prepared
Standard Tuning
Tabbed by Alex Fragd (mavrick45@gmail.com)


G----------------------------------------------------------|
D----------------------------------------------------------|
A------------3--3--3--3/7--6h7p6h7---6h7p6h7---7p6h7p6h7---|
E---3--2--1------------------------0---------0-------------|

G----------------------------------------------|
D----------------------------------------------|
A---3--3--3/7--6h7p6h7---6h7p6h7---7p6h7p6h7---|
E----------------------0---------0-------------|

G---------------------------------------|
D---------------------3-----------2-5---|
A------2-5------2-5------2-5---3--------|
E---3--------2--------------------------|

G---------------------------------------|
D---------------------3-----------2-5---|
A------2-5------2-5------2-5---3--------|
E---3--------2--------------------------|

G----------------------------------------------|
D----------------------------------------------|
A---3--3--3/7--6h7p6h7---6h7p6h7---7p6h7p6h7---|
E----------------------0---------0-------------|
[ Tab from: http://www.guitartabs.cc/tabs/e/eisley/i_wasnt_prepared_btab.html ]
G----------------------------------------------|
D----------------------------------------------|
A---3--3--3/7--6h7p6h7---6h7p6h7---7p6h7p6h7---|
E----------------------0---------0-------------|

G--------------------------------------|
D--------------------------------------|
A---5--7-----5-7-----------------------|
E--------7-------7---1-3-5-7-1-3-5-7---|

G--------------------------------------|
D--------------------------------------|
A---5--7-----5-7-----------------------|
E--------7-------7---1-3-5-7-1-3-5-7---|

G--------------------------------------|
D--------------------------------------|
A---5--7-----5-7-----------------------|
E--------7-------7---1-3-5-7-1-3-5-7---|

G----------------------------------------------|
D----------------------------------------------|
A---3--3--3/7--6h7p6h7---6h7p6h7---7p6h7p6h7---|
E----------------------0---------0-------------|

G----------------------------------------------|
D----------------------------------------------|
A---3--3--3/7--6h7p6h7---6h7p6h7---7p6h7p6h7---|
E----------------------0---------0-------------|

G----------------------------------|
D---------------------3------------|
A------2-5------2-5------2-5---3---|
E---3--------2---------------------|
Comments