Einsteins Sister - No Laughing Matter Chords & Tabs

 

No Laughing Matter Chords & Tabs

Einsteins Sister Chords & Tabs

Version: 1 Type: Tab 0 ratings
1 star 2 stars 3 stars 4 stars 5 stars
comments

No Laughing Matter Tab

   
Official Website - http://einsteinssister.tripod.com/news.html
Members - Kerry Tucker - Guitar, Vocals, Keyboards
          Bill Douglas - Vocals
          Steven Volk - Guitar, Backing Vocals
          Marty Reyhons - Drums
          Andrew Brock - Bass
Based in Moline, IL

-----------------------------------------------------------------------------
		      NO LAUGHING MATTER - Einstein's Sister
-----------------------------------------------------------------------------
Tabbed by: K Martin

Tuning: Standard
	 EADGBE


This is only the solo, but I'm working on the whole song,
and I'll post it as soon as I finish it. Thanks to Kerry,
Steve, Bill, Andrew, and Marty.


|-15-17-19-19-17-15----15--------------------------------------|
|-------------------17----17--12--13--14--15--12--10-----------|
|----------------------------------------------------12-12-----|
|--------------------------------------------------------------|
|--------------------------------------------------------------|
|--------------------------------------------------------------|
[ Tab from: http://www.guitartabs.cc/tabs/e/einsteins_sister/no_laughing_matter_tab.html ]
|----------------------------------------------------------|
|----10-12--13-12-10----10--13-12-10----10--12-10----------|
|-12-----------------12--------------12-----------12-9-----|
|----------------------------------------------------------|
|----------------------------------------------------------|
|----------------------------------------------------------|

|----------------------------------------------12-11-12-----|
|------10--12-10----------------------12-11-12--------------|
|-9-12-----------12-9--9-8-9-12-11-12-----------------------|
|-----------------------------------------------------------|
|-----------------------------------------------------------|
|-----------------------------------------------------------|

|-15-14-15-15--15-17-19-19-17-15--10-12-14-15-14--12-14-15-----|
|--------------------------------------------------------------|
|--------------------------------------------------------------|
|--------------------------------------------------------------|
|--------------------------------------------------------------|
|--------------------------------------------------------------|

|-14-15-17-15-14-19-17-15-14-12-----|
|-----------------------------------|
|-----------------------------------|
|-----------------------------------|
|-----------------------------------|
|-----------------------------------|


| /  slide up
| \  slide down
| h  hammer-on
| p  pull-off
| ~  vibrato
| +  harmonic
| x  Mute note
==========================================================
Comments