Eighties Matchbox B-line Disaster - Psychosis Safari Chords & Tabs

 

Psychosis Safari Chords & Tabs

Eighties Matchbox B-line Disaster Chords & Tabs

Version: 2 Type: Tab 0 ratings
1 star 2 stars 3 stars 4 stars 5 stars
comments

Psychosis Safari Tab

   
this is done personally by Andy (the guitarist in EMBLD) so its 100% right

INTRO
e------------------
B------------------
G------------------
D------------------
A-0-0-3-0-0-0-3-0--etc
E------------------

   MAIN RIFF  (drink all night)
e------------------------------------------
B------------------------------------------
G------------------------------------------
D------------------------------------------
A-0-0-3-0-0-0-3-0--------------------------
E-----------------------0-0-3-0-0-6-6-6----
                                   slide up
[ Tab from: http://www.guitartabs.cc/tabs/e/eighties_matchbox_b_line_disaster/psychosis_safari_tab_ver_2.html ]
   CHORUS   (heart in my mouth)
e-----------------------------------------------------------------
B-----------------------------------------------------------------
G-9-9-9-9-9-9-9-9-5-5-5-5-8-8-8-8---------------------------------
D-9-9-9-9-9-9-9-9-5-5-5-5-8-8-8-8-5-5-5-5-5-5-5-5-7-7-7-7-8-8-8-8-
A-7-7-7-7-7-7-7-7-3-3-3-3-6-6-6-6-5-5-5-5-5-5-5-5-7-7-7-7-8-8-8-8-
E---------------------------------3-3-3-3-3-3-3-3-5-5-5-5-6-6-6-6-

   AFTER CHORUS RIFF (Gtr 1)
e----------------------------------------------------------------------
B----------------------------------------------------------------------
G----------------------------------------------------------------------
D----------------------------------------------------------------------
A-7-7-10-7-7-7-10-7-7-7-10-7-7-7-10-7-3-3-6-3-3-3-6-3-3-3-6-3-3-3-6-3--
E----------------------------------------------------------------------

   AFTER CHORUS RIFF (Gtr 2)
e------------7------------7-----------3------------3-----
B-----------8------------8-----------4------------4------
G----------9------------9-----------5------------5-------
D---------9------------9-----------5------------5--------
A--------------------------------------------------------
E-0---0--------0---0---------0---0---------0---0---------Deaden this string

email me at jordison800@hotmail.com then ill get your requests then ill get them for you
Comments