Eighties Matchbox B-line Disaster - Morning Has Broken Chords & Tabs

 

Morning Has Broken Chords & Tabs

Eighties Matchbox B-line Disaster Chords & Tabs

Version: 1 Type: Tab 0 ratings
1 star 2 stars 3 stars 4 stars 5 stars
comments

Morning Has Broken Tab

   
band:the eighties matchbox b-line disaster
album:horse of the dog
song:morning has broken

intro/bridge

e|-----------------|
B|-----------------|
G|-----------------| palm muted.
D|-444444444444444-|
A|-444444444444444-|
E|-222222222222222-|




verse:1 .  o.k. the verses i tabbed arent perfect, but you CANNOT find
this anywere

e|----------------|
B|----------------|
G|---2-2----------| time whole of verse 1
D|-4--4-4-5-4-5-4-|
A|-4------5-4-5-5-| palm mut every other time (or let the bass do its work)
E|-2------3-2-3-2-|

chorous: now this is perfect!

e|-------------------|
B|-------------------|
G|-------------------|
D|-4-4-4-8-4-2-3-3-3-|
A|-4-4-4-8-4-2-3-3-3-|
E|-2-2-2-5-2-0-1-1-1-|

the second verse is probably only played on bass...but if you want to try it
do heavy palm muting or just use the root note of each chord. 

bridge

chourous

verse 3: same as verse 1 but no palm muting (best played on 2 guitars
one of them on a deep pick up and one on a high).....and goes on for longer.
[ Tab from: http://www.guitartabs.cc/tabs/e/eighties_matchbox_b_line_disaster/morning_has_broken_tab.html ]
big change bit( new baet as well)

just play around with these

e|----------------------------------------------------------------
B|----------------------------------------------------------------
G|-12-121212121212121212-1212121212121212--13-131311313131313131--(THIS IS 
D|-12-121212121212121212-1212121212121212--13-131313131313131313--NOT THE END
A|-9--9-9-9-9-9-9-9-9-9--9-9-9-9-9-9-9-9---10-101010101010101010--
E|----------------------------------------------------------------

e|--------------------------------------------------------------------------|
B|--------------------------------------------------------------------------|
G|15-1515151515151515-------------------------------------------------------|
D|15-1515151515151515--GO BACK TO BIT ABOVE BUT INSTEAD OF THIS GO TO FRET 7|
A|13-1313131313131313-------------------------------------------------------|
E|--------------------------------------------------------------------------|
WHEN I SAY "GO BACK TO FRET 7 I MEAN G|-9----
                                     D|-9----
                                     A|-7----

THANKS! the 80s matchbox rock!
Comments