Eighties Matchbox B-line Disaster - Horse Of The Dog Chords & Tabs

 

Horse Of The Dog Chords & Tabs

Eighties Matchbox B-line Disaster Chords & Tabs

Version: 1 Type: Tab 0 ratings
1 star 2 stars 3 stars 4 stars 5 stars
comments

Horse Of The Dog Tab

this is the tab for the song horse of the dog, not the album.

you will probably only understand this if you listen to the cd.

intro:

bass: i've only tabbed this bit out so you can understand the rest of the song

|---------------------|
|---------------------| goes all the way through intro (ages)
|---------------------|
|-0-2-0-222-0-2-0-222-|

guitar 1: come in afetr about the 3rd time the bass repeats itself

|------------|
|------------|
|------------|
|-4-5-77-4-4-|
|-4-5-77-4-4-|
|-2-3-55-2-2-|

guitar 2: come in the second time guitar 1 repeats itself

|-/2-2-2-2-2-2-2-2-/-|
|--------------------|
|--------------------|
|--------------------|
|--------------------|
|--------------------|

VERSE:

guitar 1 does exactly the same as the intro but about every 5 times changes to this

|-------------------|
|-------------------|
|-------------------|
|-/5555555555555555-| then goe back to the main bit
|-/5555555555555555-|
|-/3333333333333333-|

guitar 2 does this the same time guitar 1 changes:

|-/3333333333333333-|
|-------------------|
|-------------------|
|-------------------| then go back to the main bit
|-------------------|
|-------------------|

BRIDGE: well not actually a bridge but its different than the rest.
[ Tab from: http://www.guitartabs.cc/tabs/e/eighties_matchbox_b_line_disaster/horse_of_the_dog_tab.html ]
guitar 1: its hard to tab out the rythm so i couldnt do it perfectly

|------------------|
|------------------|
|------------------|
|-8-8-888-/8-8-888-|
|-8-8-888-/8-8-888-|
|-5-5-555-/5-5-555-|

guitar 2:  its hard to tab out the rythm so i couldnt do it perfectly

|-5-5-555-/5-5-555-|
|------------------|
|------------------|
|------------------|
|------------------|
|------------------|

then just keep alternating from the verse to the "bridge" for quite a while.

interlude: or thats what ill call it anyway

guitar 1: play this quite slowly

|--------------------------------------------|
|--------------------------------------------|
|--11--11----11---11---12---12-------12---12-|
|--11--11----11---11---12---12-------12---12-|
|-9---9---9-9---9----10---10----10-10---10---|
|--------------------------------------------|

guitar 2: come in after guitar 1 plays that part a couple of times

play this palm muted
|----------------------------------|
|----------------------------------|
|-11111111111111111111111111111111-|then move up to the next fret palying 
|-11111111111111111111111111111111-|the same amount of times.
|-9-9-9-9-9-9-9-9-9-9-9-9-9-9-9-9--|
|----------------------------------|


then go back to the verse and play until the end (both guitars)
Comments