Eighties Matchbox B-line Disaster - Chicken Chords & Tabs

 

Chicken Chords & Tabs

Eighties Matchbox B-line Disaster Chords & Tabs

Version: 2 Type: Tab 0 ratings
1 star 2 stars 3 stars 4 stars 5 stars
comments

Chicken Tab

   
YOU WONT FIND THIS ANYWHER SO DONT COMPLAiN!

intro(probably goes all the way through song

e|-0-0-0-0-0-0-0-0-0-0-0-0-0-0-0-0-|
B|-5-5-5-5-5-5-5-5-4-4-4-4-4-4-4-4-| TIMES ABOUT 6
G|-4-4-4-4-4-4-4-4-3-3-3-3-3-3-3-3-|
D|-2-2-2-2-2-2-2-2-2-2-2-2-2-2-2-2-|
A|---------------------------------|
E|---------------------------------| 

main riff

e|---------------------------|
B|---------------------------|
G|---------------------------| times loads 
D|---------------------------|
A|------2-2-2p0------1-1-1p0-|
E|-0-0-3--------0-0-3--------|

bridgey bit between main riff

e|---------------------------------0-|
B|---------------------------------0-|
G|---------------------------------0-|
D|-5-5-5-5-5-5-5-5-4-4-4-4-3-3-3-3-2-|
A|-5-5-5-5-5-5-5-5-4-4-4-4-3-3-3-3-1-|
e|-3-3-3-3-3-3-3-3-2-2-2-2-1-1-1-1-0-|

bit before first chorous

e|-0-3-0--1-1-1-1-|
B|-0-3-0--3-3-3-3-|
G|-1-4-1--3-3-3-3-|
D|-2-5-2--3-3-3-3-| times two   listen to cd trust me
A|-2-5-2--1-1-1-1-|
E|-0-3-0----------|

chorous
[ Tab from: http://www.guitartabs.cc/tabs/e/eighties_matchbox_b_line_disaster/chicken_tab_ver_2.html ]
e|------------------------------------------------------------------|
B|------------------------------------------------------------------|
G|------------------------------------------------------------------|
D|-6-2-6-8-8-8-8-8-8----------------2-2-2-2-2-2-2-2-8-8-8-8-8-8-8-8-|
A|-6-2-6-8-8-8-8-8-8-times whatever-2-2-2-2-2-2-2-2-8-8-8-8-8-8-8-8-|
E|-3-0-3-6-6-6-6-6-6----------------0-0-0-0-0-0-0-0-6-6-6-6-6-6-6-6-|

e|---------------------------------0-|
B|---------------------------------0-|
G|---------------------------------0-|
D|-5-5-5-5-5-5-5-5-4-4-4-4-3-3-3-3-2-|
A|-5-5-5-5-5-5-5-5-4-4-4-4-3-3-3-3-1-|
e|-3-3-3-3-3-3-3-3-2-2-2-2-1-1-1-1-0-|

2nd verse same as 1st

miss out bit before 1st chorous and go straight into 2nd(1st) chorous

3rd "verse"

e|--------------12-12-12-12-12-12-12-12-12-12-11-11-11-11-11-11-11-11-11-|
B|---------------0--0--0--0--0--0--0--0--0--0--0--0--0--0--0--0--0--0--0-|
G|---------------9--9--9--9--9--9--9--9--9--9--8--8--8--8--8--8--8--8--8-| 
D|-----------------------------------------------------------------------|
A|-----------------------------------------------------------------------|
E|-0-3p0-0-0-3p0-0--0----------------------------------------------------|

2nd bit time about 2/3/4

then bridgey bit

3rd chorous is just the bit before first chorous

end on:

e|-3-3-3-3-3-3-3-3-2-2-2-2-1-1-1-1-0-|
B|-3-3-3-3-3-3-3-3-2-2-2-2-1-1-1-1-0-|
G|-4-4-4-4-4-4-4-4-3-3-3-3-2-2-2-2-1-|
D|-5-5-5-5-5-5-5-5-4-4-4-4-3-3-3-3-2-|
A|-5-5-5-5-5-5-5-5-4-4-4-4-3-3-3-3-2-|
e|-3-3-3-3-3-3-3-3-4-4-4-4-1-1-1-1-0-|
Comments