Eighteen Visions - Waiting For The Heavens Chords & Tabs

 

Waiting For The Heavens Chords & Tabs

Eighteen Visions Chords & Tabs

Version: 2 Type: Tab 0 ratings
1 star 2 stars 3 stars 4 stars 5 stars
comments

Waiting For The Heavens Tab

   
Eighteen Visions - Waiting for the Heavens
Tuning: Dropped D then down one whole step

intro (guitar 1) x4
E|-----|
B|5-7-0|
G|4-7-9|
D|2-5-7|
A|-----|
D|-----|

intro (guitar 2) x2
E|---2--------2-2-|---0--------0-0-|
B|-0----0-0-0----0|-5----5-5-5----5|
G|4-4--4-4-4-4-4--|7-7--7-7-7-7-7--|
D|---------------------------------|
A|---------------------------------|
D|---------------------------------|

E|--------0--|  
B|--------0--|
G|-----------|
D|2-2-4-2---2|
A|5-2-4-2---2|
D|5-2-4-2---2|

verse (guitar 1) x 4
E|--------------------------||
B|--------------------------||
G|--------------------------||*
D|0-(2)-2-2-(1)-1-0--0000000||*
A|0-(2)-2-2-(1)-1-0--0000000||
D|0-(2)-2-2-(1)-1-0--0000000||
                     *******
verse (guitar 2) x 4
E|--------------------------||
B|--------------------------||
G|--------------------------||*
D|0-(2)-2-5-(2)-4-0--0000000||*
A|0-(2)-2-5-(2)-4-0--0000000||
D|0-(2)-2-5-(2)-4-0--0000000||
                     *******
verse continued (guitar 1) x 4
E|------------------------||
B|------------------------||
G|------------------------||*
D|0-(2)-2-2-(1)-1-0--00-00||*
A|0-(2)-2-2-(1)-1-0--00-00||
D|0-(2)-2-2-(1)-1-0--00-00||
          *  *  * *  ** **
verse continued (guitar 2) x 4
E|------------------------||
B|------------------------||
G|------------------------||*
D|0-(2)-2-5-(2)-4-0--00-00||*
A|0-(2)-2-5-(2)-4-0--00-00||
D|0-(2)-2-5-(2)-4-0--00-00||
          *  *  * *  ** **
Bridge (guitar 2)
E|---2--------2-2-|---0--------0-0-|
B|-0----0-0-0----0|-5----5-5-5----5|
G|4-4--4-4-4-4-4--|7-7--7-7-7-7-7--|
D|---------------------------------|
A|---------------------------------|
D|---------------------------------|

chorus (guitar 1) x 2
E|------||
B|------||
G|------||*
D|2--0--||*
A|2--0--||
D|2--0--||

chorus (guitar 2) x2
E|------||
B|5--3--||
G|4--2--||*
D|2--0--||*
A|------||
D|------||

(chorus guitar 1 and 2) x2
E|------||
B|5--3--||
G|4--2--||*
D|2--0--||*
A|2--0--||
D|2--0--||
[ Tab from: http://www.guitartabs.cc/tabs/e/eighteen_visions/waiting_for_the_heavens_tab_ver_2.html ]
verse (guitar 1) x 4
E|--------------------------||
B|--------------------------||
G|--------------------------||*
D|0-(2)-2-2-(1)-1-0--0000000||*
A|0-(2)-2-2-(1)-1-0--0000000||
D|0-(2)-2-2-(1)-1-0--0000000||
                     *******
verse (guitar 2) x 4
E|--------------------------||
B|--------------------------||
G|--------------------------||*
D|0-(2)-2-5-(2)-4-0--0000000||*
A|0-(2)-2-5-(2)-4-0--0000000||
D|0-(2)-2-5-(2)-4-0--0000000||
                     *******
verse continued (guitar 1) x 4
E|------------------------||
B|------------------------||
G|------------------------||*
D|0-(2)-2-2-(1)-1-0--00-00||*
A|0-(2)-2-2-(1)-1-0--00-00||
D|0-(2)-2-2-(1)-1-0--00-00||
          *  *  * *  ** **
verse continued (guitar 2) x 4
E|------------------------||
B|------------------------||
G|------------------------||*
D|0-(2)-2-5-(2)-4-0--00-00||*
A|0-(2)-2-5-(2)-4-0--00-00||
D|0-(2)-2-5-(2)-4-0--00-00||
          *  *  * *  ** **

chorus (guitar 1) x 2
E|------||
B|------||
G|------||*
D|2--0--||*
A|2--0--||
D|2--0--||

chorus (guitar 2) x2
E|------||
B|5--3--||
G|4--2--||*
D|2--0--||*
A|------||
D|------||

(chorus guitar 1 and 2) x2
E|------||
B|5--3--||
G|4--2--||*
D|2--0--||*
A|2--0--||
D|2--0--||

verse (guitar 1) x 4
E|--------------------------||
B|--------------------------||
G|--------------------------||*
D|0-(2)-2-2-(1)-1-0--0000000||*
A|0-(2)-2-2-(1)-1-0--0000000||
D|0-(2)-2-2-(1)-1-0--0000000||
                     *******
verse (guitar 2) x 4
E|--------------------------||
B|--------------------------||
G|--------------------------||*
D|0-(2)-2-5-(2)-4-0--0000000||*
A|0-(2)-2-5-(2)-4-0--0000000||
D|0-(2)-2-5-(2)-4-0--0000000||
                     *******
verse continued (guitar 1) x 4
E|------------------------||
B|------------------------||
G|------------------------||*
D|0-(2)-2-2-(1)-1-0--00-00||*
A|0-(2)-2-2-(1)-1-0--00-00||
D|0-(2)-2-2-(1)-1-0--00-00||
          *  *  * *  ** **
verse continued (guitar 2) x 4
E|------------------------||
B|------------------------||
G|------------------------||*
D|0-(2)-2-5-(2)-4-0--00-00||*
A|0-(2)-2-5-(2)-4-0--00-00||
D|0-(2)-2-5-(2)-4-0--00-00||
          *  *  * *  ** **
Comments