Eighteen Visions - Lost In A Dream Chords & Tabs

 

Lost In A Dream Chords & Tabs

Eighteen Visions Chords & Tabs

Version: 2 Type: Tab 0 ratings
1 star 2 stars 3 stars 4 stars 5 stars
comments

Lost In A Dream Tab

Lost in a Dream
Eighteen Visions
tuning-Down one halfstep and 6th string is tuned to a drop D
tabbed by Tabbmastercammi

first part of intro
e/6--------------6-----------------------------------/
B/-7--10-7-6-7-----7--10-7--6-7---6-7----------------/
G/---6----6---9------6-----6---6-8-------------------/
d/---------------------------------------------------/
A/---------------------------------------------------/
D/---------------------------------------------------/
[ Tab from: http://www.guitartabs.cc/tabs/e/eighteen_visions/lost_in_a_dream_tab_ver_2.html ]
         second part of intro/chorus
e/6---------------------------------------------------/
B/--7--10-7--6-7-10-7-6-------------------------------/
G/---6------6----------9------------------------------/
d/----------------------------------------------------/
A/----------------------------------------------------/
D/----------------------------------------------------/

        main part
e/----------------------------------------------------/
B/----------------------------------------------------/
G/----------------------------------------------------/
d/2-2-2-2-2-5-5-5-2-2-2-5-5-5--4-4-4------------------/
A/2-2-2-2-2-5-5-5-2-2-2-5-5-5--4-4-4------------------/
D/2-2-2-2-2-5-5-5-2-2-2-5-5-5--4-4-4------------------/
         Bridge
e/-----------------------------------------------------/
B/-----------------------------------------------------/
G/-----------------------------------------------------/
d/-----------------------------------------------------/
A/2-2-0-2-1-0-0-0-1-1-2-2-3-3--------------------------/
D/2-2-0-2-1-0-0-0-1-1-2-2-3-3--------------------------/
Comments