Eighteen Visions - I Dont Mind Chords & Tabs

 

I Dont Mind Chords & Tabs

Eighteen Visions Chords & Tabs

Version: 1 Type: Tab

I Dont Mind Tab

   
Band- Eighteen Visions
Song- I Don't Mind
[ Tab from: http://www.guitartabs.cc/tabs/e/eighteen_visions/i_dont_mind_tab.html ]
Tuning:cgcfad
Intro and Verse (leave out except for intro)
D|---------------------------------------------------------------|
A|---------------------------------------------------------------|
F|------------------------6666---6666--66------------------------|
C|--(0~)----555--222-3----xxxx---xxxx--xx------------------------|
G|--(0~)----555--222-3----4444---4444--44------------------------|
C|--(0~)----555--222-3---0------0-----0--------------------------|
                         .      .     .
Chorus (im not quite sure here,but oh well. left strumming out too)
D|---------------------------------------------------------------|
A|---------------------------------------------------------------|
F|---7----10---9---5---------------------------------------------|
C|---x----x----x---x---------------------------------------------|
G|---5----8----7---3---------------------------------------------|
C|---------------------------------------------------------------|
Last Riff (outro)
D|---------------------------------------------------------------|
A|---------------------------------------------------------------|
F|---------------------------------------------------------------|
C|--000-3-0-3--000-3-0-3--000-3-0-3------------------------------| repeat once,then add
G|--000-3-0-3--000-3-0-3--000-3-0-3--------0-3-5-----------------| slide down to 3 from wherever
C|--000-3-0-3--000-3-0-3--000-3-0-3---0-3-5----------------------|
    ...   .    ...   .    ...   .   
D|---------------------------------------------------------------|
A|---------------------------------------------------------------|
F|---------------------------------------------------------------|
C|-----------------0-3-5-----------------------------------------|
G|-----------0-3-5-----------------------------------------------|
C|-----0-3-5-----------------------------------------------------|

i know thats not the tuning,but im a laz dood. its just a step lower.
i also left some parts out,whatev

| / slide up
| \ slide down
| h hammer-on
| p pull-off
| v vibrato
| + harmonic
| x Mute note
| ~ hold note
| . palm mute
| ^ pinch harmonic