Eighteen Visions - Crushed Chords & Tabs

 

Crushed Chords & Tabs

Eighteen Visions Chords & Tabs

Version: 1 Type: Bass Tab

Crushed Bass Tab

Band- Eighteen Visions
Song- Crushed

For a 5-string bass (for 4 string, tune E down to B)

Intro:
G|--------|----------------|--------|----------------|
D|--------|----------------|--------|----------------|
A|--------|----------------|--------|----------------|
E|--------|----------------|--------|----------------|
B|--------|--2-0-2-5-2-0-2-|--------|--2-0-2-5-0-1~~~|

Verse:
G|----------------|----------------|----------------|----------------|
D|----------------|----------------|----------------|----------------|
A|----------------|----------------|----------------|----------------|
E|----------------|----------------|----------------|----------------|
B|2-2-0-2-5-2-0-2-|--2-0-2-5-2-0-2-|2-2-0-2-5-2-0-2-|--2-0-2-5-0-1~~~|
[ Tab from: http://www.guitartabs.cc/tabs/e/eighteen_visions/crushed_btab.html ]
Chorus:
G|----------------|----------------|
D|----------------|----------------|
A|----------------|----------------|
E|----------------|----------------|
B|6-6-6-6-6-3-3-3-|2p0-2p0-2p0-2p0-|

Interlude:
G|----------------|----------------|----------------|----------------|
D|----------------|----------------|----------------|----------------|
A|----------------|7-7-7-7-7-7-7-7-|----------------|----------------|
E|7-7-7-7-7-7-7-7-|----------------|5-5-5-5-5-5-5-5-|5-5-5-5-5-5-5-5-|
B|----------------|----------------|----------------|----------------|

Outro:
G|----------------|----------------|
D|----------------|----------------|
A|----------------|----------------|
E|----------------|----------------|
B|0-2-2~~~~~7-6-5~|~~1-1~~~1~~~2~~~|