Eiffel 65 - Blue Chords & Tabs

 

Blue Chords & Tabs

Eiffel 65 Chords & Tabs

Version: 2 Type: Bass Tab 0 ratings
1 star 2 stars 3 stars 4 stars 5 stars
comments

Blue Bass Tab

   
Song: Blue
Artist: Eiffel 65
Album: Blue - Single
Tabbed By: Steve Laycock (steve_laycock@hotmail.com)
Member of the Bass Tab Archive Tabbing Army - http://www.basstabarchive.com/

This song is played in dropped D (D,A,D,G)

Intro (Yo, listen up...)
G|--------|
D|--------|
A|--REST--|
D|--------|

1st Interlude (Syncopated notes)
G|--------------------|
D|--------------------|
A|--------------------|
D|--5--5--5--5--5--5--|
[ Tab from: http://www.guitartabs.cc/tabs/e/eiffel_65/blue_btab_ver_2.html ]
Chorus
G|------------------------------5---5---|
D|*----5---5---3---3---1---1-----------*|
A|*---------------------------3---3----*| X3
D|---5---5---3---3---1---1--------------|

G|-----------------------------------|
D|----5---5---7---7---1---1---1---1--|
A|-----------------------------------|
D|--5---5---7---7---1---1---1---1----|

2nd Interlude (Syncopated notes)
G|--------------------|
D|--------------------|
A|--------------------|
D|--0--0--0--0--0--0--|

Verse (Syncopated notes)
G|-----------------------------|
D|*------------------------8--*|
A|*---------------------------*|
D|---0--0--3--3--6--6--8-7-----|

G|--------------|
D|--------------|
A|--------------|
D|--0--0--3--3--|
Comments