Eels - Rags To Rags Chords & Tabs

 

Rags To Rags Chords & Tabs

Eels Chords & Tabs

Version: 2 Type: Tab 0 ratings
1 star 2 stars 3 stars 4 stars 5 stars
comments

Rags To Rags Tab

   
Verses

|---------------------------------------------------------------------|
|--------------------------------------5-------6-------5-------6------|
|------5-------5-------5-------5---------5-------5-------5-------5----|
|----7---7---7---7---7---7---7---7---7-------7-------7-------7--------|
|--7-------8-------7-------8-------7-------8-------7-------8----------|
|---------------------------------------------------------------------|
[ Tab from: http://www.guitartabs.cc/tabs/e/eels/rags_to_rags_tab_ver_2.html ]
|---------------------------------------------------------------------|
|---------------------------------------------------------------------|
|------5-------5-------5-------5-------5-------5-------0-------0------|
|----7---7---7---7---7---7---7---7---7---7---7---7---2---2---2---2----|
|--7-------8-------7-------8-------7-------8-------3-------2----------|
|---------------------------------------------------------------------|

Chorus

G5 C5 D5 C5
Comments