Eels - Mental Chords & Tabs

 

Mental Chords & Tabs

Eels Chords & Tabs

Version: 1 Type: Bass Tab 0 ratings
1 star 2 stars 3 stars 4 stars 5 stars
comments

Mental Bass Tab

Song: Mental
Artist: Eels
Album: Beautiful Freak
Tabbed by: Mac (Mac1st3@gmail.com)

First tab I've written and only started playing bass in august-ish so be gentle

Verse part 1
G	[-----------------------------------------------]
D	[------0-0-3-0---0-3-0--------------------------]
A	[------------------------0-0-3-0---0-3-0--------]  repeat 6 times
E	[-----------------------------------------------]

Verse part 2
G	[-----------------------------------------------]
D	[-----------------------------------------------]
A	[------------1-------1----0-0-3-0---0-3-0-------]
E	[-------3-3---3---3---3-------------------------]
[ Tab from: http://www.guitartabs.cc/tabs/e/eels/mental_btab.html ]
Fill 1
G	[---------------------]
D	[---------------------]
A	[-----000000000-------]
E	[---------------------]

Chorus 1
G	[----------------------------------------------]
D	[-----0-0-0-0-0-0-0-0--------------------------]
A	[--------------------------0-0-0-0-0-0-0-0-----]
E	[----------------------------------------------]

Chorus 2
G	[----------------------------------------------]
D	[----------------------------------------------]
A	[---------------------------0-0-0-0-0-0-0-0----]
E	[-----3-3-3-3-3-3-3-3--------------------------]

Fill 2
G	[--------------------------------]
D	[----------------2-1-0-----------]
A	[---0-1--2--3------------2-3-----]
E	[--------------------------------]

That's the general line of it, I'll let you sort out the order of it all, but its pretty 
forward.
Enjoy

any comments feel free to mail me
Comments