Eels - Grace Kelly Blues Chords & Tabs

 

Grace Kelly Blues Chords & Tabs

Eels Chords & Tabs

Version: 2 Type: Chords 0 ratings
1 star 2 stars 3 stars 4 stars 5 stars
comments

Grace Kelly Blues Chords

   
eels - Grace Kelly Blues

Tabbed by Juergen A. Comments to: doctorj@gmx.net  (c) 2005
I think this is quite correct.
Figured it out some time ago while playing along with the record.

Chords

E --0----0----0-----0-----3----1---|
B --1----1----1-----1-----0----1---|
G --0----0----0-----0-----0----2---|
D --2----0----2-----2-----0----3---|
A --3----2----0-----0-----2----3---|
E --X----X----X-----3-----3----X---|
    C   C/B  Am7  Am7/G   G    F


Picking Pattern
[ Tab from: http://www.guitartabs.cc/tabs/e/eels/grace_kelly_blues_crd_ver_2.html ]
E -----0------0-----0----0-----1-----1-----1-----1--|
B -----1------1-----1----1-----1-----1-----0-----0--|
G -----0------0-----0----0-----2-----2-----0-----0--|
D -----2------0-----2----2---3-3-----3-----0-----0--|
A ---3------2-----0----------------3-3-----2---2----|
E ----------------------3----------------3----------|


    C     C/B   Am7
The cut - rate  mime

Am7/G    F                  G
Walking  through the dirty  streets

   C    C/B   Am7   Am7/G  F            G
Of Pa - ris   in    the    hot  August  heat

F                G     C      F
Sun melting the  fake  smile  away

              G               C
Just looking  for a place to  stay
Comments