Edwyn Collins - A Girl Like You Chords & Tabs

 

A Girl Like You Chords & Tabs

Edwyn Collins Chords & Tabs

Version: 2 Type: Tab 0 ratings
1 star 2 stars 3 stars 4 stars 5 stars
comments

A Girl Like You Tab

   
-----------------------------------------------------------------
EDWYN COLLINS: A GIRL LIKE YOU - solo
-----------------------------------------------------------------
Tabbed by: mattie
Email:evil_piglet@poczta.onet.pl

Tuning:E A D G H E

   solo 1 x2
e|----------|----------------|----------------|----------------|-------|
B|----------|8^--------------|----11-8--------|8^--------------|-------|
G|-----8-10-|-(10)8----------|8-----------10-8|-(10)8----------|7^-----|
D|10--------|------10-----10-|----------10----|------10-----10-|---8-10|
A|----------|----------------|----------------|----------------|-------|
E|----------|----------------|----------------|----------------|-------|

  bass
e|----------------------|
B|----------------------|
G|----------------------|
D|----------------------|
A|3---1-------------1---|
E|--------4---3---1---3-|

  solo 2 
e|----------------|-6-8------------|10-11-----------|-13-------------|
B|-1-4------------|----------------|----------------|----------------|
G|----------------|----------------|----------------|----------------|
D|----------------|----------------|----------------|----------------|
A|----------------|----------------|----------------|----------------|
E|----------------|----------------|----------------|----------------|

e|----------------|----------------|----------------|----------------|
B|----------------|8----------6----|----------------|----------------|
G|---8-------10-8-|-----------^8-5-|-8---5----------|-7---5-8--------|
D|10--------------|----------------|-------8-5-8----|---8------------|
A|----------------|----------------|----------------|----------------|
E|----------------|----------------|----------------|----------------|

[ Tab from: http://www.guitartabs.cc/tabs/e/edwyn_collins/a_girl_like_you_tab_ver_2.html ]
  end solo
e|--------------3~|~~~-------------|----------------|----------------|
B|----4-4---4-6---|----------------|----4-4---4-6---|----------------|
G|5-------5-------|----------------|5-------5-----3~|~~~-------------|
D|----------------|----------------|----------------|----------------|
A|----------------|----------------|----------------|----------------|
E|----------------|----------------|----------------|----------------|

e|------------6-3~|~~~-------------|--------------3~|~~~-----3-------|
B|----4-4---4-----|----------------|--4-4---4-6-4---|----6-4-----6-4-|
G|5-------5-------|----------------|5-----5---------|----------------|
D|----------------|----------------|----------------|----------------|
A|----------------|----------------|----------------|----------------|
E|----------------|----------------|----------------|----------------|

e|3-------3-------|3-------3-------|----------------|----------------|
B|----6-4-----6-4-|----6-4-----6-4-|4---------------|6---------------|
G|----------------|----------------|------5---------|------5---------|
D|----------------|----------------|----------------|----------------|
A|----------------|----------------|----------------|----------------|
E|----------------|----------------|----------------|----------------|

e|6---------------|6(\8)-----------|----------------|----------------|
B|----------------|----------------|----------------|----------------|
G|------5---------|------5---------|----------------|----------------|
D|----------------|----------------|----------------|----------------|
A|----------------|----------------|3---1-----------|----------------|
E|----------------|----------------|--------4---3---|1---------------|

    "~" isn't a vibrato this time
	I used it to mark the duration of some notes :)
Comments