Edwin Mccain - Day Will Never Come Chords & Tabs

 

Day Will Never Come Chords & Tabs

Edwin Mccain Chords & Tabs

Version: 1 Type: Chords 0 ratings
1 star 2 stars 3 stars 4 stars 5 stars
comments

Day Will Never Come Chords

   
-------------------------------------------------------------------------------
		           "Day Will Never Come" by Edwin McCain
                            From the album "Scream & Whisper"
-------------------------------------------------------------------------------

Tabbed by: Aaron Field
Email: Oasis4U2NV@aol.com

Chords used:  

   C  Fmaj7  Em   Am   G    Dm  C/B
e|-0----0----0----0----3----1----0-|
B|-1----1----0----1----0----3----1-|
G|-0----2----0----2----0----2----0-|
D|-2----3----2----2----0----0----0-|
A|-3----3----2----0----2----0----2-|
E|-0----x----0----x----3----x----0-|


Riff:

      C                 Fmaj7
e|----0---0-----0-----0---0---0-----0----------|
B|----1-----1-----1-------1-----1-----1--------|
G|----0-------0-----0-----2-------2------------|
D|----2-------------------3--------------------|
A|----3-------------------3--------------------|
E|----0-------------------x--------------------|


Listen to the CD for strumming patterns.

Intro:  (Riff x2)

Verse 1:
C                   Fmaj7
  The smile on your face 
C                   Fmaj7
  Could sacrifice salvation
C                         Em                 Am      Fmaj7
  As the winter sunshine fades to bring you down
C                 Fmaj7
  A fumble in the dark
C                       Fmaj7
  It's a journey on the night train
C                     Em                 Am      Fmaj7
  A friendship never grows to bring you down
[ Tab from: http://www.guitartabs.cc/tabs/e/edwin_mccain/day_will_never_come_crd.html ]
Bridge:
G                        Fmaj7
 Everybody's waiting for God
G                   Fmaj7
 To fall out of the skies


Chorus 1:
       C    Fmaj7       C      Fmaj7      
Is it all    in    the stars  tonight
       C     Em          Am
Is it all    in    your mind
Fmaj7                   (Riff)
  That day will never come

Verse 2: 
C                Fmaj7
  A sentimental dream
C                       Fmaj7
  My feelings based on instinct
C                   Em           Am      Fmaj7                  
  As I curl up and sleep on the floor
C                   Fmaj7
  If there's danger ahead 
C                     Fmaj7
  That's keeping you waiting
C                      Em                      Am      Fmaj7                  
  And know you've had enough when the morning comes


Repeat Bridge

Repeat Chorus

Guitar Solo Chords:  G - Dm - Fmaj7 - C - C/B - G - Dm - Fmaj7 - G

Chorus 2:
       C    Fmaj7       C      Fmaj7      
Is it all    in    the stars  tonight
       C     Em          Am
Is it all    in    your mind
     Fmaj7
'Cause I don't really know
         C    Fmaj7       C      Fmaj7      
If it's all    in    the stars  tonight
       C     Em          Am     Fmaj7
Is it all    in    your mind
                     (Riff)
That day will never come
                      (Riff)
That day will never come
Comments