Edwin - Hang Ten Chords & Tabs

 

Hang Ten Chords & Tabs

Edwin Chords & Tabs

Version: 1 Type: Tab 0 ratings
1 star 2 stars 3 stars 4 stars 5 stars
comments

Hang Ten Tab

   
T1: Ryan, liddellr@hotmail.com, Edwin, Hang Ten, 27/4/99 

 S1: Thanks, Song: Hang Ten 
 Artist: Edwin 
 Album: Another Spin Around the Sun 

 INTRO (Bass plays the low E string part) 

 E|----------------------------------------------------------------------------------|

 B|--------------7--7--7--7--7--7----------------------7--7--7--7--7--7-----/9--/9---|

 G|--------------8--8--8--8--8--8----------------------8--8--8--8--8--8--------------|
 (x 2) 
 D|----------------------------------------------------------------------------------|

 A|----------------------------------------------------------------------------------|

 E|--5\0--0-----------------------------0--3--5--0-----------------------------------|


 E|--------------------------------------------------------------------------------------------|

 B|--------------------------------------------------------------------------------------------|

 G|--------------------------------------------------------------------------------------------|

 D|---------0--1--3--4--3--1-----------0--0------------0--1--3--4--3--1------------------------|
 (x 2) 
 A|---0---------------------------0--3-------------0----------------------------0--3--0--2--0--|

 E|--------------------------------------------------------------------------------------------|


 I think of her in the sunken blue 
 I think of her... 

 VERSE 1 (play riff one from intro minus the /9 /9 ending) 
 (not sure on some of the lyrics) 

 Living in a plasticine coloured dream 
 Fire me up with ??? 
 She's the rose in my gun (<--???) 
 Sweep me up I'm done 

 CHORUS 

 G5 A5 Em 
 E|------------------------------------------------| 
 B|------------------------------------------------| 
 G|------------------------------------------------| 
 D|---5--5--5---7--7--7---2--2--2--2--2--2--2--2---| 
 A|---5--5--5---5--7--7---2--2--2--2--2--2--2--2---| 
 E|---3--3--3---5--5--5---0--0--0--0--0--0--0--0---| 

 Peace love hang ten California 
 Dreaming of the perfect wave yeah yeah yeah 
 Floating downstream, unconscious 
 Waiting for a girl on a train 

 (repeat riff 2 from intro twice) 

 VERSE 2 (same as verse one) 
[ Tab from: http://www.guitartabs.cc/tabs/e/edwin/hang_ten_tab.html ]
 The train of thought falling off the track 
 Radios and Cadillacs 
 Satellite in the sky 
 Kills me first before I die 

 CHORUS 

 BRIDGE (sounds something like:) 

 Dm A Dm G 
 E|---1--1--1-----------------1--1--1--3----3--3--3---| 
 B|---3--3--3--2----2--2--2---3--3--3--0----0--0--0---| (this played with
 minor changes for a 
 G|---2--2--2--2----2--2--2---2--2--2--0----0--0--0---| few seconds) 
 D|------------2----2--2--2------------0----0--0--0---| (suggestions
 welcome for right way to 
 A|------------------------------------2----2--2--2---| play that part) 
 E|------------------------------------3----3--3--3---| 

 I think of her in the sunken blue in the month of May 
 I wait for her as the storm comes screaming through my veins 

 SOLO 

 E|--------------------------------------------------------------------------------------------

 B|---10---11---10-11-10-11-10-11--10--11--10--11--9-------------------------------------------

 G|-------------------------------------------------------------------10h11-10h11-10-8--8---7-6

 D|--------------------------------------------------------------------------------------------

 A|--------------------------------------------------------------------------------------------

 E|--------------------------------------------------------------------------------------------


 E|-------------------------------------------------------| 
 B|--------------11----12-11-13-11-13-11-12-11-13-11-12---| 
 G|-7-6-2--\3---------------------------------------------| 
 D|-------------------------------------------------------| 
 A|-------------------------------------------------------| 
 E|-------------------------------------------------------| 

 CHORUS 

 Peace love hang ten California 
 Dreaming of the perfect wave yeah yeah yeah 
 Floating downstream unconscious 
 Waiting for a girl on a train yeah yeah 

 Peace love hang ten California 
 Dreaming of the perfect wave yeah yeah yeah 
 So now take care don't they warn ya 
 Man is gonna come around yeah yeah 
 Oh oh oh California 
 Wearing yourself down California 
 Wearing yourself down California 
 Waiting for a girl on a train 
Comments