Edwin - And You Chords & Tabs

 

And You Chords & Tabs

Edwin Chords & Tabs

Version: 1 Type: Tab 0 ratings
1 star 2 stars 3 stars 4 stars 5 stars
comments

And You Tab

Artist: Edwin
   Song: And you
   From:Another Spin Around the Sun(1999)
   Tuning: Normal

   This song deserves way more credit then that stupid "Hang Ten". Hang Ten
   is still a pretty good song, but this song just rocks!

   Riff#1(played after Edwin sings lines in the verses)

   e--------------------------
   B--------------------------
   G--------------------------play that twice each time.
   D--------------------------
   A--------------------------
   E--3-1-0-1-3-1-0-1-3-3-3-1-

   Its pretty hard to explain what the strumming pattern is, 
   but listen to the song to get the right sound to these chords:
   e--------------
   B-8--8--9--7---
   G-8--7--8--7---
   D-8--5--6--7---
   A-6--5--6--5---
   E--------------
   "Does it matter now, how I got here?"
[ Tab from: http://www.guitartabs.cc/tabs/e/edwin/and_you_tab.html ]
   Chorus:
   e-------------------------------------------
   B-------------------------------------------
   G-7-7-7-7-7-6-6-5-5-------------------------
   D-6-6-6-6-6-5-5-4-4-------------------------
   A-7-7-7-7-7-6-6-5-5-------------------------
   E-------------------3-1-0-1-3-1-0-1-3-3-3-1-

   e-------------------------------------------------
   B-------------------------------------------------
   G-7-7-7-7-7-6-6-5-5--12-12-12-12--12-12-12-12-10--
   D-6-6-6-6-6-5-5-4-4---9--9--9--9---9--9--9--9--9--
   A-7-7-7-7-7-6-6-5-5--10-10-10-10--10-10-10-10-10--
   E-------------------------------------------------

   Repeat first part of chorus then play this:

   e--------------------------------------------------------------
   B--------------------------------------------------------------
   G-7-7-7-7-7-6-6-5-5--------------------------------------------
   D-6-6-6-6-6-5-5-4-4----------------4---------------------------
   A-7-7-7-7-7-6-6-5-5--2-4-2-3-2-4-2---2-3-4---2-4-2-3-2-4-------
   E--------------------------------------------------------0-0-0-

   Thats the song

   If you have any questions, comments, or REQUESTS! email me at
   jordanrocks99@hotmail.com

   Thanx!
   Jordan Legg
   Arnprior, Ont.
Comments