Editors - You Are Fading Chords & Tabs

 

You Are Fading Chords & Tabs

Editors Chords & Tabs

Version: 1 Type: Bass Tab

You Are Fading Bass Tab

Editors Ė You Are Fading

Russell Comes In At (0.41) Bass Is Heavily Distorted Throughout

G-------------------------------------|
D-------------------------------------|
A----7--------5--------4--------7-----|(7)
E-------------------------------------|

(x6)

(1.36) Legendary Bass Riff
[ Tab from: http://www.guitartabs.cc/tabs/e/editors/you_are_fading_btab.html ]
G----------------------------------------------------------------------------------|
D--------14---12---11---------14---12---11---12---14---12---11---12---14---12---11-|
A---12-------------------12--------------------------------------------------------|
E----------------------------------------------------------------------------------|

G---------------------------------------------------------------------------------|
D--------14---12---11--------14---12---11--------14---12---11--------14---12---11-|
A---12------------------12------------------12------------------12----------------|
E---------------------------------------------------------------------------------|


(x6)

Then there is a short instrumental break until

(3.06)
Play the Legendary Bass Riff until (4.00)

Thatís how itís played but itís a fun bass line to improvise on towards the end :)

Tabbed by RandomHeroX (Jack Layzell)
E-mail randomherox@hotmail.co.uk for any suggestions :)