Editors - Someone Says Chords & Tabs

 

Someone Says Chords & Tabs

Editors Chords & Tabs

Version: 1 Type: Tab 0 ratings
1 star 2 stars 3 stars 4 stars 5 stars
comments

Someone Says Tab

   
-------------------------------------------------------------------------------
			     Someone Says - Editors
-------------------------------------------------------------------------------
Tabbed by: DT
Email: alex_turner30@hotmail.com
[ Tab from: http://www.guitartabs.cc/tabs/e/editors/someone_says_tab.html ]
Tuning: EADGBe
Intro/Verse
e|-----------------------------------------------------------------------------|
B|-------7-7-7-7---------------------------------------------------------------|
G|-----------------8-8-8-8-----------------------------------------------------|
D|---------------------------6-6-6-6-------------------------------------------|
A|-----------------------------------------------------------------------------|
E|-----------------------------------------------------------------------------|
To add the “atmosphere” at the beginning of each verse I like to play this on guitar 2, 
quieter and with loads of reverb
e|-------6-6-6-6---------------------------------------------------------------|
B|------7-7-7-7-7-7-7-7--------------------------------------------------------|
G|----------------8-8-8-8-8-8-8-8----------------------------------------------|
D|--------------------------6-6-6-6--------------------------------------------|
A|-----------------------------------------------------------------------------|
E|-----------------------------------------------------------------------------|
Chorus
“Neighbour…”
e|-----------------------------------------------------------------------------|
B|------11-11-11-9-9-9-11-11-11//14-14-14-11-11-9-9----------------------------|
G|-----------------------------------------------------------------------------|
D|-----------------------------------------------------------------------------|
A|-----------------------------------------------------------------------------|
E|-----------------------------------------------------------------------------|
Break
e|-----------------------------------------------------------------------------|
B|------7--7--7--7--7--7--7-9-9-9----------------------------------------------|
G|------8--8--8--8--8--8--8-8-8-8----------------------------------------------|
D|-----------------------------------------------------------------------------|
A|-----------------------------------------------------------------------------|
E|-----------------------------------------------------------------------------|

e|-----------------------------------------------------------------------------|
B|------7--7--7--7--7--7--7----------------------------------------------------|
G|------8--8--8--8--8--8--8-8--------------------------------------------------|
D|--------------------------------6--------------------------------------------|
A|-----------------------------------------------------------------------------|
E|-----------------------------------------------------------------------------|

| /  slide up
| \  slide down
| h  hammer-on
| p  pull-off
| ~  vibrato
| +  harmonic
| x  Mute note
===============================================================================
Comments