Editors - Munich Chords & Tabs

 

Munich Chords & Tabs

Editors Chords & Tabs

Version: 3 Type: Tab 0 ratings
1 star 2 stars 3 stars 4 stars 5 stars
comments

Munich Tab

-------------------------------------------------------------------------------
			     Munich - Editors
-------------------------------------------------------------------------------

Tabbed by: The Middle 8th

By the way if you don't already have Editors debut album The Backroom - 
I recommend it. Definitley my album of the year. Not a single bad song
on it!

I only have the lead guitar for this song and I'm currently working on 
the bass and the chords. I'll try and post them very soon!

Chris (Lead Guitar)
Tuning: Standard EADGBe

Intro Riff 1 x4

e|---10-10-10-6-6-6-----------------6-6--------------------------------------|
B|------------------8-8-8-6-6-6-8-8------------------------------------------|
G|---------------------------------------------------------------------------|
D|---------------------------------------------------------------------------|
A|---------------------------------------------------------------------------|
E|---------------------------------------------------------------------------|

Intro Riff 2 x2

e|----10-10-10-10-10-10-10-10-6-6-6-6-6-6-6-6-10-10-10-10-10-10-10-10-10-6-6-6--------------|
B|-----------------------------------------------------------------------------8-8-8-8-8----|
G|------------------------------------------------------------------------------------------|
D|------------------------------------------------------------------------------------------|
A|------------------------------------------------------------------------------------------|
E|------------------------------------------------------------------------------------------|

Verse Riff 1 x2

e|---10-10-10-10-10-10-10-10-10-10-10-10-10-10-10-10-------------------------|
B|----8--8--8--8--8--8--8--8--8--8--8--8--8--8--8--8-------------------------|
G|---------------------------------------------------------------------------|
D|---------------------------------------------------------------------------|
A|---------------------------------------------------------------------------|
E|---------------------------------------------------------------------------|

Verse Riff 2 x2
[ Tab from: http://www.guitartabs.cc/tabs/e/editors/munich_tab_ver_3.html ]
e|---6-6--6-6--10-10-10-10--6-6--6-6--6-6--6-6-------------------------------|
B|---8-8--8-8---8--8--8--8--8-8--8-8--8-8--8-8-------------------------------|
G|---------------------------------------------------------------------------|
D|---------------------------------------------------------------------------|
A|---------------------------------------------------------------------------|
E|---------------------------------------------------------------------------|

Chorus (Tremelo Picking) use the track to help with the rythm.

e|-8--11--15--18--15--11-----------------------------------------------------|
B|---------------------------------------------------------------------------|
G|---------------------------------------------------------------------------|
D|---------------------------------------------------------------------------|
A|---------------------------------------------------------------------------|
E|---------------------------------------------------------------------------|

This is the riff before the second verse (played x2)
e|--6-6-10-10-6-6-10-------------------10-10-10-10-10-10-10-10-6-6-6-------------|
B|-------------------8-8-8-8-8-8-8-8-8-------------------------------8-8-8-8-8---|
G|-------------------------------------------------------------------------------|
D|-------------------------------------------------------------------------------|
A|-------------------------------------------------------------------------------|
E|-------------------------------------------------------------------------------|

 Verse 2 and Chorus 2 are exactly the same as the first ones.

 In the 3rd verse the guitar still plays exactly the same although its hard to hear.

 The Final Chorus is the same as the last ones.

 For the outro play the intro riff (x8)...

e|--10-10-10-6-6-6-----------------6-6---------------------------------------|
B|-----------------8-8-8-6-6-6-8-8-------------------------------------------|
G|---------------------------------------------------------------------------|
D|---------------------------------------------------------------------------|
A|---------------------------------------------------------------------------|
E|---------------------------------------------------------------------------|

 And end on...

e|------10-------------------------------------------------------------------|
B|---------------------------------------------------------------------------|
G|---------------------------------------------------------------------------|
D|---------------------------------------------------------------------------|
A|---------------------------------------------------------------------------|
E|---------------------------------------------------------------------------|


| /  slide up
| \  slide down
| h  hammer-on           "Thankyou for your co-operation"
| p  pull-off
| ~  vibrato
| +  harmonic
| x  Mute note
===============================================================================
Comments