Edie Brickell - What I Am Chords & Tabs

 

What I Am Chords & Tabs

Edie Brickell Chords & Tabs

Version: 2 Type: Tab 0 ratings
1 star 2 stars 3 stars 4 stars 5 stars
comments

What I Am Tab

#----------------------------------PLEASE NOTE------------------------------#
This file is the author's own work and represents their interpretation of the
song. You may only use this file for private study, scholarship, or research.
#---------------------------------------------------------------------------#


Author/Artist: Edie Brickell
Title: What I Am
Album: Shooting Rubberbands at the Stars
Transcribed by: Jens Everling
Email: jens.j.everling@freenet.de

standard Tuning
quaver mostly ternary played
starts on 2+
rhythm is fairly exact
effect:WahWah

Guitar Solo

-----------------------------------------------------------------------------|
-----------------------------------------------------------------------------|
-7h9---7-6-----9---7-6-----9---7-6-----9---7-6-----9-6-7-6-----------------7-|
-----------9-7---------9-7---------9-7---------9-7---------9-9-------7h9-----|
-----------------------------------------------------------------------------|
-----------------------------------------------------------------------------|


-----------------------------------------------------------------------------|
-----------------------------------------------------------------------------|
----------------------------------------------------------------7---------7--|
-9-7--------------------------------------7---9------7-9---9-7-9----9-7-9----|
-----9-7-9-7-9-7-9-10-9-----7-9-7-9-7-9--------------------------------------|
-----------------------------------------------------------------------------|

[ Tab from: http://www.guitartabs.cc/tabs/e/edie_brickell/what_i_am_tab_ver_2.html ]
-----------------------------------------------------------------------------|
-----------7-10---7-10-7-10/12---12---10-------------------------------------|
-9---7-7-9------9------------------------------11p9------11\9-------7-9---9--|
---9------------------------------------------------9-12---------------------|
-----------------------------------------------------------------------------|
-----------------------------------------------------------------------------|


-----------------------------------------------------------------------------|
-------7-----------------------------------10-7---7--------------------------|
-9-7-9---9-7-9p7-7-----------------7-9-9-7------9-------------7-9-9-7-7------|
----------------9----7-9-------7-9------------------------7-9----------------|
---------------------------7/9------------------------7/9--------------------|
-----------------------------------------------------------------------------|


-----------------------------------------------------------------------------|
-10-7---7-10-------------------10-7---7-10--------------------------101010---|
------9------9-7-9-7----------------9------9-7-9p7-7779p7-777-11p911---------|
---------------------9---9p7-7--------------------9------9-------------------|
----------------------------9------------------------------------------------|
-----------------------------------------------------------------------------|


--------------14---------------------17----14--------------------------------|
--------15-17---------------15-17-15----17---------------------17-15----15---|
-16p1416-----------16-14-16---------------------------14-16----------16------|
------------------------------------------------14h16------------------------|
-----------------------------------------------------------------------------|
-----------------------------------------------------------------------------|


-17----14----14-----------------------------17----14-14----------------------|
----17-----17--171517--15-------------15-17----17-------1517--15-------------|
--------------------------16----14-16---------------------------16p14--14p16-|
-----------------------------16--------------------------------------16------|
-----------------------------------------------------------------------------|
-----------------------------------------------------------------------------|
Comments