Edgewater - Eyes Wired Shut Chords & Tabs

 

Eyes Wired Shut Chords & Tabs

Edgewater Chords & Tabs

Version: 1 Type: Tab 0 ratings
1 star 2 stars 3 stars 4 stars 5 stars
comments

Eyes Wired Shut Tab

   
-------------------------------------------------------------------------------
			     Eyes Wired Shut - Edgewater
-------------------------------------------------------------------------------

Artist: Edgewater
Song:   Eyes Wired Shut
Album:  South Of Sideways
Tabbed: Jan Van Gulck
Email:  janvangulck@hotmail.com





Tuning: D A D G B e



This song was tabbed with a lot of beer, even more candy and buckets of sweat....
(even my radio refuses to play the song once more!)
It's how I see the song, and how I think it sounds, 
so don't be mad if something isn't correctly tabbed, 
I can't do everything, how the song must be played is your job ;)
Though any corrections or improvements are welcome!!

I've added numbers to the tab to make it easy'er for you. 
I think you get the system, but, if you can't figure out, feel free to ask!

and please keep in mind...buy that album, don't download it:) 
They are too f*ckin' good!

Have Fun!



Intro:


Guitar 1:

 1                         2
e|-------------------------|-------------------------|
B|-------------------------|-------------------------|
G|-------------------------|-------------------------|
D|-12-12-12-12-12-12-12-12-|-12-12-12-12-12-12-12-12-|
A|-------------------------|-------------------------|
D|-------------------------|-------------------------|


Guitar 2:

 1                         2
e|-------------------------|-------------------------|
B|-------------------------|-------------------------|
G|-------------------------|-------------------------|
D|-------------------------|----------------5--5--4--|
A|-------------------------|----------------5--5--4--|
D|-------------------------|----------------5--5--4--|



Guitar 1:

 1                         2                         3
e|-------------------------|-------------------------|---------------------------|
B|-------------------------|-------------------------|---------------------------|
G|-14-14-14-14-14-14-14-14-|-18-18-18-18-18-18-18-18-|-16-14-14-14-14-14-14-14---|
D|-12-12-12-12-12-12-12-12-|-16-16-16-16-16-16-16-16-|-14-12-12-12-12-12-12-12---|
A|-------------------------|-------------------------|---------------------------|
D|-------------------------|-------------------------|---------------------------|


 4                         5                         6
e|-------------------------|-------------------------|---------------------------|
B|-------------------------|-------------------------|---------------------------|
G|-18-18-18-18-18-18-18-19-|-16-14-14-14-14-14-14-14-|-14-14-14-14-14-14-14-14---|
D|-16-16-16-16-16-16-16-17-|-14-12-12-12-12-12-12-12-|-12-12-12-12-12-12-12-12---|
A|-------------------------|-------------------------|---------------------------|
D|-------------------------|-------------------------|---------------------------|


 7                         8
e|-------------------------|-------------------------|
B|-------------------------|-------------------------|
G|-----/16-16------/16-16--|-----/16-16-----19-19-18-|
e|-----/14-14------/14-14--|-----/14-14-----17-17-16-|
B|-------------------------|-------------------------|
D|-------------------------|-------------------------|
           ^           ^             ^  
Guitar 2:

 1                         2                         3
e|-------------------------|-------------------------|---------------------------|
B|-------------------------|-------------------------|---------------------------|
G|-------------------------|-------------------------|---------------------------|
D|-0-----0--0--0--0--0--0--|-0--0--0--0--0--0--0--0--|-5-----5--5--5--5--5--5----|
A|-0-----0--0--0--0--0--0--|-0--0--0--0--0--0--0--0--|-5-----5--5--5--5--5--5----|
D|-0-----0--0--0--0--0--0--|-0--0--0--0--0--0--0--0--|-5-----5--5--5--5--5--5----|


 4                         5                         6
e|-------------------------|-------------------------|---------------------------|
B|-------------------------|-------------------------|---------------------------|
G|-------------------------|-------------------------|---------------------------|
D|-5--5--5--5--5--5--5--5--|-9-----9--9--9--9--9--9--|-9--9--9--9--9--9--9--9----|
A|-5--5--5--5--5--5--5--5--|-9-----9--9--9--9--9--9--|-9--9--9--9--9--9--9--9----|
D|-5--5--5--5--5--5--5--5--|-9-----9--9--9--9--9--9--|-9--9--9--9--9--9--9--9----|


 7                        8
e|------------------------|------------------------|
B|------------------------|------------------------|
G|------------------------|------------------------|
D|-----7-7---------7-7----|-------7-7------5--5--4-|
A|-----7-7---------7-7----|-------7-7------5--5--4-|
D|-----7-7---------7-7----|-------7-7------5--5--4-|
         ^           ^              ^

Verse 1:


Guitar 1:

 1                         2                         3
e|------|                  |-------------------------|-------------------------|
B|------|                  |-------------------------|-------------------------|
G|--19--| let ring         |-------------------------|-------------------------|
D|--17--|                  |-11-12-11-12-11-12-11-12-|-11-12-11-12-11-12-11-12-|
A|------|                  |-------------------------|-------------------------|
D|------|                  |-------------------------|-------------------------|


 4
e|-------------------------|
B|-------------------------|
G|-------------------------|
D|-11-12-11-12-11-12-11-12-|
A|-------------------------|
D|-------------------------|


Guitar 2:

repeat 4x

 1                         2                         3
e|-------------------------|-------------------------|-------------------------|
B|-------------------------|-------------------------|-------------------------|
G|-------------------------|-------------------------|-------------------------|
D|-5-5-5--5--5--5--5--5--5-|-9-9-9--9--9--9--9--9--9-|-7-7-7--7--7--7--7--7--7-|
A|-5-5-5--5--5--5--5--5--5-|-9-9-9--9--9--9--9--9--9-|-7-7-7--7--7--7--7--7--7-|
D|-5-5-5--5--5--5--5--5--5-|-9-9-9--9--9--9--9--9--9-|-7-7-7--7--7--7--7--7--7-|
   ^ ^ ^  ^  ^  ^  ^  ^  ^   ^ ^ ^  ^  ^  ^  ^  ^  ^   
   \---/                     \---/                     \---/
     3                         3                         3


       first 3 times                     4th time
  /------------------------\     /------------------------\
 4                               4
e|-------------------------|     |-----------------------|
B|-------------------------|     |-----------------------|
G|-------------------------|     |-----------------------|
D|-7-7-7--7--7--7--7--7--7-|     |-7--7--7--7----5--5--4-|
A|-7-7-7--7--7--7--7--7--7-|     |-7--7--7--7----5--5--4-|
D|-7-7-7--7--7--7--7--7--7-|     |-7--7--7--7----5--5--4-|
   ^ ^ ^  ^  ^  ^  ^  ^  ^
   \---/
     3


Chorus:

Guitar 1:

repeat 2x

 1                         2                         3
e|-------------------------|-------------------------|-------------------------|
B|-------------------------|-------------------------|-------------------------|
G|-------------------------|-------------------------|-------------------------|
D|-12-12-12-12-12-12-12-12-|-12-12-12-12-12-12-12-12-|-17-17-17-17-17-17-17-17-|
A|-------------------------|-------------------------|-------------------------|
D|-------------------------|-------------------------|-------------------------|


 4                         5                         6
e|-------------------------|-------------------------|-------------------------|
B|-------------------------|-------------------------|-------------------------|
G|-------------------------|-------------------------|-------------------------|
D|-17-17-17-17-17-17-17-17-|-9--9--9--9--9--9--9--9--|-9--9--9--9--9--9--9--9--|
A|-------------------------|-------------------------|-------------------------|
D|-------------------------|-------------------------|-------------------------|


 7                         8
e|-------------------------|-------------------------|
B|-------------------------|-------------------------|
G|-------------------------|-------------------------|
D|---7---7-7-----7---7-7---|---7--5--5------17-17-16-|
A|-------------------------|-------------------------|
D|-------------------------|-------------------------|
         ^ ^         ^ ^         



Guitar 2:

repeat 2x


 1                         2                         3
e|-------------------------|-------------------------|---------------------------|
B|-------------------------|-------------------------|---------------------------|
G|-------------------------|-------------------------|---------------------------|
D|-0--0---0--0--0--0--0--0-|-0--0--0--0--0--0--0--0--|-5--5--5--5--5--5--5--5----|
A|-0--0---0--0--0--0--0--0-|-0--0--0--0--0--0--0--0--|-5--5--5--5--5--5--5--5----|
D|-0--0---0--0--0--0--0--0-|-0--0--0--0--0--0--0--0--|-5--5--5--5--5--5--5--5----|


 4                         5                         6
e|-------------------------|-------------------------|---------------------------|
B|-------------------------|-------------------------|---------------------------|
G|-------------------------|-------------------------|---------------------------|
D|-5--5--5--5--5--5--5--5--|-9--9--9--9--9--9--9--9--|-9--9--9--9--9--9--9--9----|
A|-5--5--5--5--5--5--5--5--|-9--9--9--9--9--9--9--9--|-9--9--9--9--9--9--9--9----|
D|-5--5--5--5--5--5--5--5--|-9--9--9--9--9--9--9--9--|-9--9--9--9--9--9--9--9----|


 7                         8
e|-------------------------|-------------------------|
B|-------------------------|-------------------------|
G|-------------------------|-------------------------|
D|-----7-7---------7-7-----|----7--7--7--7--5--5--4--|
A|-----7-7---------7-7-----|----7--7--7--7--5--5--4--|
D|-----7-7---------7-7-----|----7--7--7--7--5--5--4--|
	 ^           ^          


Verse 2:

Guitar 1:

 
       first 2 times
 /-------------------------\     
 4                               
e|-------------------------|
B|-----------------14--15--|
G|-------------------------|
D|-------------------------|
A|-------------------------|
D|-------------------------|



       3th time
 /-------------------------\
 4
e|---14--------------------|
B|------15----14-15-14-15--|
G|-------------------------|
D|-------------------------|
A|-------------------------|
D|-------------------------|


       4th time
 /----------------------------\
 4
e|--------14------------------|
B|-14-15-----15---14-15-14-15-|
G|----------------------------|
D|----------------------------|
A|----------------------------|
D|----------------------------|



Guitar 2:

repeat 4x

 1                         2                         3
e|-------------------------|-------------------------|-------------------------|
B|-------------------------|-------------------------|-------------------------|
G|-------------------------|-------------------------|-------------------------|
D|-5-5-5--5--5--5--5--5--5-|-9-9-9--9--9--9--9--9--9-|-7-7-7--7--7--7--7--7--7-|
A|-5-5-5--5--5--5--5--5--5-|-9-9-9--9--9--9--9--9--9-|-7-7-7--7--7--7--7--7--7-|
D|-5-5-5--5--5--5--5--5--5-|-9-9-9--9--9--9--9--9--9-|-7-7-7--7--7--7--7--7--7-|
   ^ ^ ^  ^  ^  ^  ^  ^  ^   ^ ^ ^  ^  ^  ^  ^  ^  ^   
   \---/                     \---/                     \---/
     3                         3                         3

[ Tab from: http://www.guitartabs.cc/tabs/e/edgewater/eyes_wired_shut_tab.html ]
       first 3 times                     4th time
  /-------------------------\     /------------------------\
 4                                4
e|--------------------------|     |-----------------------|
B|--------------------------|     |-----------------------|
G|--------------------------|     |-----------------------|
D|-7-7-7--7--7--7--7--12-12-|     |-7--7--7--7----5--5--4-|
A|-7-7-7--7--7--7--7--7--12-|     |-7--7--7--7----5--5--4-|
D|-7-7-7--7--7--7--7--7--12-|     |-7--7--7--7----5--5--4-|
   ^ ^ ^  ^  ^  ^  ^  ^  ^
   \---/
     3



Chorus:

Guitar 1:

repeat 2x

 1                         2                         3
e|-------------------------|-------------------------|-------------------------|
B|-------------------------|-------------------------|-------------------------|
G|-------------------------|-------------------------|-------------------------|
D|-12-12-12-12-12-12-12-12-|-12-12-12-12-12-12-12-12-|-17-17-17-17-17-17-17-17-|
A|-------------------------|-------------------------|-------------------------|
D|-------------------------|-------------------------|-------------------------|


 4                         5                         6
e|-------------------------|-------------------------|-------------------------|
B|-------------------------|-------------------------|-------------------------|
G|-------------------------|-------------------------|-------------------------|
D|-17-17-17-17-17-17-17-17-|-9--9--9--9--9--9--9--9--|-9--9--9--9--9--9--9--9--|
A|-------------------------|-------------------------|-------------------------|
D|-------------------------|-------------------------|-------------------------|


 7                         8
e|-------------------------|-------------------------|
B|-------------------------|-------------------------|
G|-------------------------|-------------------------|
D|---7---7-7-----7---7-7---|---7--5--5------17-17-16-|
A|-------------------------|-------------------------|
D|-------------------------|-------------------------|
         ^ ^         ^ ^         



Guitar 2:

repeat 2x


 1                         2                         3
e|-------------------------|-------------------------|---------------------------|
B|-------------------------|-------------------------|---------------------------|
G|-------------------------|-------------------------|---------------------------|
D|-0--0---0--0--0--0--0--0-|-0--0--0--0--0--0--0--0--|-5--5--5--5--5--5--5--5----|
A|-0--0---0--0--0--0--0--0-|-0--0--0--0--0--0--0--0--|-5--5--5--5--5--5--5--5----|
D|-0--0---0--0--0--0--0--0-|-0--0--0--0--0--0--0--0--|-5--5--5--5--5--5--5--5----|


 4                         5                         6
e|-------------------------|-------------------------|---------------------------|
B|-------------------------|-------------------------|---------------------------|
G|-------------------------|-------------------------|---------------------------|
D|-5--5--5--5--5--5--5--5--|-9--9--9--9--9--9--9--9--|-9--9--9--9--9--9--9--9----|
A|-5--5--5--5--5--5--5--5--|-9--9--9--9--9--9--9--9--|-9--9--9--9--9--9--9--9----|
D|-5--5--5--5--5--5--5--5--|-9--9--9--9--9--9--9--9--|-9--9--9--9--9--9--9--9----|

                                     1st time                      2nd time
                             /-------------------------\ /-------------------------\
 7                           8                           8
e|-------------------------| |-------------------------| |-------------------------|
B|-------------------------| |-------------------------| |-------------------------|
G|-------------------------| |-------------------------| |-------------------------|
D|-----7-7---------7-7-----| |----7--7--7--7--5--5--4--| |----7--7--7--7--7--7--7--|
A|-----7-7---------7-7-----| |----7--7--7--7--5--5--4--| |----7--7--7--7--7--7--7--|
D|-----7-7---------7-7-----| |----7--7--7--7--5--5--4--| |----7--7--7--7--7--7--7--|
	 ^           ^            ^  ^  ^


Interlude:

Guitar 1:

with effect,
repeat 4x

 
e|-------------------|-------------------|
B|-------------------|-------------------|
G|-------------------|-------------------|
D|-------------------|-------------------|
A|-----5--------5----|-----7---------9---|
D|--4-----4--5-----5-|-7-----7--9--------|




Pre-Chorus:

Guitar 2:

repeat 2x

                            
 1                      2                       
e|----------------------|-------------------------|  
B|----------------------|-------------------------|
G|----------------------|-------------------------|
D|--4--4--4--5--5-----7-|--7--7--7--9--9---9------|
A|--4--4--4--5--5-----7-|--7--7--7--9--9---9------|
D|--4--4--4--5--5-----7-|--7--7--7--9--9---9------|


then


Guitar 1:

repeat 2x

 3                          4
e|--------10-10-------10-10-|--------10-10-------10-10-|
B|--10-10-------10-10-------|--10-10-------10-10-------|
G|--------------------------|--------------------------|
D|--------------------------|--------------------------|
A|--------------------------|--------------------------|
D|--------------------------|--------------------------|


 5                         6
e|-------------------------|-------------------------|
B|-------------------------|-------------------------|
G|--9--9--9--9--9--9--9--9-|--9--9--9--9---9p10------|
D|-------------------------|-------------------------|
A|-------------------------|-------------------------|
D|-------------------------|-------------------------|




Guitar 2;

repeat 2x

                                   1st time                        2nd time
                           /-------------------------\  /-------------------------\
 3                         4	                        4
e|----------------------|  |-------------------------|  |-------------------------|
B|----------------------|  |-------------------------|  |-------------------------|
G|----------------------|  |-------------------------|  |-------------------------|
D|--4--4--4--5--5-----7-|  |--7--7--7--9-----9-------|  |--7--4--4--4--5--5--7--7-|
A|--4--4--4--5--5-----7-|  |--7--7--7--9-----9-------|  |--7--4--4--4--5--5--7--7-|
D|--4--4--4--5--5-----7-|  |--7--7--7--9-----9-------|  |--7--4--4--4--5--5--7--7-|



 5                         6
e|-------------------------|-------------------------|
B|-------------------------|-------------------------|
G|-------------------------|-------------------------|
D|--7--7--7--7--7--7--7--7-|-7--7--7--7--7--7--7--7--|
A|--7--7--7--7--7--7--7--7-|-7--7--7--7--7--7--7--7--|
D|--7--7--7--7--7--7--7--7-|-7--7--7--7--7--7--7--7--|





Chorus:

Guitar 1:

repeat 4x

 1                         2                         3
e|-------------------------|-------------------------|-------------------------|
B|-------------------------|-------------------------|-------------------------|
G|-------------------------|-------------------------|-------------------------|
D|-12-12-12-12-12-12-12-12-|-12-12-12-12-12-12-12-12-|-17-17-17-17-17-17-17-17-|
A|-------------------------|-------------------------|-------------------------|
D|-------------------------|-------------------------|-------------------------|


 4                         5                         6
e|-------------------------|-------------------------|-------------------------|
B|-------------------------|-------------------------|-------------------------|
G|-------------------------|-------------------------|-------------------------|
D|-17-17-17-17-17-17-17-17-|-9--9--9--9--9--9--9--9--|-9--9--9--9--9--9--9--9--|
A|-------------------------|-------------------------|-------------------------|
D|-------------------------|-------------------------|-------------------------|


 7                         8
e|-------------------------|-------------------------|
B|-------------------------|-------------------------|
G|-------------------------|-------------------------|
D|---7---7-7-----7---7-7---|---7--5--5------17-17-16-|
A|-------------------------|-------------------------|
D|-------------------------|-------------------------|
         ^ ^         ^ ^         



Guitar 2:

repeat 4x


 1                         2                         3
e|-------------------------|-------------------------|---------------------------|
B|-------------------------|-------------------------|---------------------------|
G|-------------------------|-------------------------|---------------------------|
D|-0--0---0--0--0--0--0--0-|-0--0--0--0--0--0--0--0--|-5--5--5--5--5--5--5--5----|
A|-0--0---0--0--0--0--0--0-|-0--0--0--0--0--0--0--0--|-5--5--5--5--5--5--5--5----|
D|-0--0---0--0--0--0--0--0-|-0--0--0--0--0--0--0--0--|-5--5--5--5--5--5--5--5----|


 4                         5                         6
e|-------------------------|-------------------------|---------------------------|
B|-------------------------|-------------------------|---------------------------|
G|-------------------------|-------------------------|---------------------------|
D|-5--5--5--5--5--5--5--5--|-9--9--9--9--9--9--9--9--|-9--9--9--9--9--9--9--9----|
A|-5--5--5--5--5--5--5--5--|-9--9--9--9--9--9--9--9--|-9--9--9--9--9--9--9--9----|
D|-5--5--5--5--5--5--5--5--|-9--9--9--9--9--9--9--9--|-9--9--9--9--9--9--9--9----|

                                     1st time                      2nd time
                             /-------------------------\ /-------------------------\
 7                           8                           8
e|-------------------------| |-------------------------| |-------------------------|
B|-------------------------| |-------------------------| |-------------------------|
G|-------------------------| |-------------------------| |-------------------------|
D|-----7-7---------7-7-----| |----7--7--7--7--5--5--4--| |----7--7--7--5--5--4--0--|
A|-----7-7---------7-7-----| |----7--7--7--7--5--5--4--| |----7--7--7--5--5--4--0--|
D|-----7-7---------7-7-----| |----7--7--7--7--5--5--4--| |----7--7--7--5--5--4--0--|
	 ^           ^            ^  ^  ^



| ^  Palm Muted
| p  pull-off
| x  Mute note
===============================================================================

Lyrics

EYES WIRED SHUT
---------------

Intro


Verse 1

I've thrown away again the pills that make me
I've thrown away again the chance to want to change
I've thrown away again I'm standing all alone
I've thrown away again


Chorus

Eyes wired shut running through my brain
Pulling back the skin it happens we're getting older
Eyes wired shut running through my brain
It's all the same but in the end it keeps me coming


Verse 2

I've blown away again the fear of failing
I've blown away again the lies that make me sane
I've blown away the chance to make it right
I want to be I want to see I want to make it back to me


Chorus

Eyes wired shut running through my brain
Pulling back the skin it happens we're getting older
Eyes wired shut running through my brain
It's all the same but in the end it keeps me coming


Interlude


Pre Chorus


Chorus

Eyes wired shut running through my brain
Pulling back the skin it happens we're getting older
Eyes wired shut running through my brain
It's all the same but in the end it keeps me coming
Eyes wired shut running through my brain
Pulling back the skin it happens we're getting older
Eyes wired shut running through my brain
It's all the same but in the end it keeps me coming
Comments