Edge Of Sanity - The Unorthodox Chords & Tabs

 

The Unorthodox Chords & Tabs

Edge Of Sanity Chords & Tabs

Version: 1 Type: Tab 0 ratings
1 star 2 stars 3 stars 4 stars 5 stars
comments

The Unorthodox Tab

Edge of Sanity - The Unorthodox
Unorthodox
tabbed by: Drew Schinzel 
April 2000


Legend:
-------
~ vibrato

This is in standard tuning, but in order to do that, I had to substitute the
occasional
chord in place of a single note lower than E.  I would tune down to B, but
it sounds
 terrible on my guitar, and, with all due respect to EOS, I'm not gonna
tune down 2.5
steps just to play one of their songs.  If you want to play this in B
tuning, just take
everything down one string.  For the "double-stop" chords (i forget the
technical name),
in B you would play an octave lower than the second note.

 string intro
|------------------------------------------|
|------------------------------------------|
|------------------------------------------|
|------------------------------------------|
|-6--7---0--6--7---0--5-3-2-----3-2-0------|
|---------------------------0---------4~---|

 riff 1  tremolo everything              ending
|-------------------------------------|----------------------|
|-------------------------------------|----------------------|
|-------------------------------------|--4-------------------|
|------------------------4--------1---|--4---3---7---5---4---|
|-1-2-----1-2------------2--------1---|--2---3---5---3---2---|
|------0-------0--5-3-2--2--3-2-0-----|------1---5---3---2---|

 riff 2 tremolo again
|--------------------------|
|--------------------------|
|--------------------------|
|--------------------------|
|-2---1-2----5-4---0-3-----|
|--------------------------|
[ Tab from: http://www.guitartabs.cc/tabs/e/edge_of_sanity/the_unorthodox_tab.html ]
 riff 3   guitar one
|------------------------------------------------------|
|------------------------------------------------------|
|------------------------------------------------------|
|--------------2-5--2----------------0------------0----|
|-2--5-2--1--4--------4--5--4--2--4----4-2-1--2-4---4--|
|------------------------------------------------------|
|         guitar two                                   |
|------------------------------------------------------|
|------------------------------------------------------|
|------------------------------------------------------|
|-4----------------------7------------4----------------|
|-2----------------------5------------4----------------|
|-2-------6--------------5------------2----------------|

riff 4  The chords are questionable.. EOS use single notes since
they're tuned to B,
this is my best approximation.
|------------------------------------|
|------------------------------------|
|------------------------------------|
|------------------------------------|
|--4----4--5----5--6----6--7----7----|
|----3--4----4--5----5--6----6--7----|

 riff 5   guitar one - may be double an octave lower
|----------------------------------------------------|
|----------------------------------------------------|
|-7--7---6--6---9--9---7-7---6~----------------6-----|
|--------------------------------9--7--9~------------|
|----------------------------------------------------|
|----------------------------------------------------|
|         guitar two                                 |
|----------------------------------------------------|
|----------------------------------------------------|
|----------------------------2-----------------------|
|-4--------------------------2---------2-------------|
|-2--------------------------0---------2-------------|
|-2------------------------------------0-------------|
At the end of the second repetition, chug some more E5s and start playing
the same riff but with a heavy palm-muted rhythm - listen to the CD.

 riff 6
|-----------------------------|
|-----------------------------|
|-----------------------------|
|--8-------4--8-----7---4-----|
|--6-------2--6-----5---2-----|
|--6-------2--6-----5---2-----|
In the song, this riff starts off as a tremoloed single-note line, but since
this is in
 E you'll have to play it with the chords (or just the note octaves if
you want).

 riff 7
|---------------------------------------------|
|---------------------------------------------|
|---------------------------------------------|
|--5---8---4-4-4--4-4-4----5---8---4--4--4----|
|--3---6---2-2-2--2-2-2----3---6---2--2--2----|
|--3---6---2-2-2--2-2-2----3---6---2--2--2----|

 riff 8
|-----------------------------------------------|
|-----------------------------------------------|
|-----------------------------------------------|
|-4-4-4--4-4-4--5--8---4-4-4--4-4-4--8--7--5----|
|-2-2-2--2-2-2--3--6---2-2-2--2-2-2--6--5--3----|
|-2-2-2--2-2-2--3--6---2-2-2--2-2-2--6--5--3----|
Comments