Edgar Winter Group - Free Ride Chords & Tabs

 

Free Ride Chords & Tabs

Edgar Winter Group Chords & Tabs

Version: 2 Type: Tab 0 ratings
1 star 2 stars 3 stars 4 stars 5 stars
comments

Free Ride Tab

   
Tabbed by:kco
Email:

Tuning:standard

First Tab by "kid guitar" is very close but the changes are:

s = slide
p = pull off
h = hammer on
v = down pick
^ = up pick


RIFF1: (play while droning the open "A" string--not tabbed)
  v sv ^   v h   ^   v  ^  v   sv ^  v h ^  v ^
e|---------------------------------------------------------------------|
B|----( )--9-10--10--8--7--------( )- -8-8--7-(5)----2-----------------|
G|-----7---9-----9---7--7---------7-- -7-7--7-(6)-or-2 if fast hands---|
D|-----7---9-11--11--9--7---------7-- -9-9--7-(7)----2-----------------|
A|7--9---------------------7----9--------------------------------------|
E|---------------------------------------------------------------------|

RIFF 2:
e|------------------------------------------------------------------|
B|---5-(0)-4-(0)-3-(0)-2-incorrect-its------------------------------|
G|------------------------------2--5--2--4--0--3--0--2----0-2--2----|
D|------------------------------------------------------2-----------|
A|------------------------------------------------------------------|
E|------------------------------------------------------------------|

RIFF 3:
e|------------------------------------------------------------------|
B|------------------------------------------------------------------|
G|------------------------------------------------------------------|
D|------------------------------------------------------------------|
A|-----------incorrect--its-----------------------------------------|
E|---5-3-5----3-4-5-4-5---------5-2-3   3-4-5-4-5------3-4-5-2-3----|
[ Tab from: http://www.guitartabs.cc/tabs/e/edgar_winter_group/free_ride_tab_ver_2.html ]
CHORD CHART   (keep this simple)

    D         A        F#    G        D
e|--5---------5--------2-------3------5----------------------------------------|
B|--5---------5--------2-------3------5----------------------------------------|
G|--5---7-----5--6-----2--3----3--4---5--6-------------------------------------|
D|--5---7-----5--7-----2--4----3--5---5--7-------------------------------------|
A|--5---7-----5--7-----2--4----3--5---5--7-------------------------------------|
E|--5---------5--------2-------3------5----------------------------------------|

RIFF1

VERSE 1
    D            A        D         A
The mountain is high, the valley is low
    D       A        D           A
And you're confused, on which to go
   D      A        D          A
So I come here, to give you a hand
    D        A         D        A
And lead you into, the promised land...so

CHORUS (hit each chord 2 times, except for D chord)
F#F#     GG            A
    Come on and take a free ride (free ride)
F#F#     GG           A
    Come on continue by my side
F#F#     GG             D   D       RIFF2
    Come on and take a free ride

RIFF 1

VERSE 2
All over the country, I'm seein' it the same
Nobody's winning, at this type of game
We gotta do better, it's time to begin
You know all the answers, must come from within..so

CHORUS

SOLO

Stop bridge (RIFF 3)

RIFF 1

CHORUS

Come on and take a free ride yea, yea, yea, yea......
Comments