Eder Chris - My Life Chords & Tabs

 

My Life Chords & Tabs

Eder Chris Chords & Tabs

Version: 1 Type: Tab 0 ratings
1 star 2 stars 3 stars 4 stars 5 stars
comments

My Life Tab

1 --2-3-2-----2-0---------------------------------------------
2---------3-0----------------------2-3-2-----2-0--------------
3-------------------2-3-2-----2-0--------3-0------------------
4-------------------------3-0---------------------------------
5------------------------------------------------2-3-2-----2-0-
6------------------------------------------------------3-0-----
[ Tab from: http://www.guitartabs.cc/tabs/e/eder_chris/my_life_tab.html ]
i'm waitin at the doorstep for yo, thinkin about wut u'r doin right now
, because i always miss you.
i've looked at all the the pictures , of when your little.
 i'am gettin drunk just thinkin about you.

1-------------------------
2-------------------------
3-------------------------
4-------------------------  x's 4
5---0--0--0--0---0--------
6---2--4--1--2---3--------

is it me or some one alse, do you think its funny too cheat on other 
guy's like me .
it's not the only time u've done this.
not only too me.
Comments