Eddie Money - Two Tickets To Paradise Chords & Tabs

 

Two Tickets To Paradise Chords & Tabs

Eddie Money Chords & Tabs

Version: 1 Type: Bass Tab

Two Tickets To Paradise Bass Tab

   
Title: 2 Tickets to paradise
Artist: Eddie Money 
Album: Eddie Money
Tabber: Steph
Email: cyberbassist@hotmail.com

Here's the main bassline for this song. Somes fills are missing but 
figure out by yourself

[ Tab from: http://www.guitartabs.cc/tabs/e/eddie_money/two_tickets_to_paradise_btab.html ]
Intro:
    G                           A
G|-----------------------------------------------------------------------|
D|-----5---5-------5---5----------7---7----7-----7------5---5---5---5----|
A|-----------------------------------------------------------------------|
E|--3-----3-----3----3------0---5---5----5----5----0--3---3---3---3----5~|


Verse:
    G                        A
G|-----------------------------------------------------|
D|-*---5----5----5----5--------7----7-----7-----7----*-|
A|-*-------------------------------------------------*-|
E|--3----3----3----3------0--5----5----5-----5-----0---|


Chorus:
     D       G      A
G|-----------------------|
D|-----------------------|
A|---5-------------------|
E|-----------3------5----|


Enjoy!