Ed Sutton Band - Stepping On It Chords & Tabs

 

Stepping On It Chords & Tabs

Ed Sutton Band Chords & Tabs

Version: 1 Type: Tab 0 ratings
1 star 2 stars 3 stars 4 stars 5 stars
comments

Stepping On It Tab

   
-------------------------------------------------------------------------------
                             STEPPIN ON IT:  The Ed Sutton Band
-------------------------------------------------------------------------------
Tabbed by:  Edo
Email: edwheeler@earthlink.net



Riff 1  (2x)
e|----------------------------------------------------------------------------------------|
B|----------------------------------------------------------------------------------------|
G|----------------------------------------------------------------------------------------|
D|-----------------------------------------~5--5--7--p5--4--5--p4--p2--4--p2---|
A|----x0--x0--x4-p0--x5--p0----x7-------------------------------------------------|
E|---------------------------------------------------------------------------------------|


Riff 2  (2x)
e|----------------------------------------------------------------------------------------|
B|----------------------------------------------------------------------------------------|
G|---------------------------------------~5--5--7--p5--4--5--p4--p2--4--p2----|
D|----x0--x0--x4--p0--x5--p0--x7--------------------------------------------------|
A|----------------------------------------------------------------------------------------|
E|----------------------------------------------------------------------------------------|


Riff 3 (2x)
e|----------------------------------------------------------------------------------------|
B|----------------------------------------------------------------------------------------|
G|---------------------------------------------------------------------------------------|
D|----------------------------------------------------------------------------------------|
A|----------------------------------------~5--5--7--p5--4--5--p4--p2--4--p2----|
E|----x0--0x--x4--p0--x5--p0--x7--------------------------------------------------|


Riff 1  (2x)
e|-----------------------------------------------------------------------------------------|
B|----------------------------------------------------------------------------------------|
G|-------------------------------------------7b9--7--p5-----5------------------------|
D|----------------------------------------------------------7----------------------------|
A|----x0--x0--x4-p0--x5--p0----x7-------------------------------------------------|
E|----------------------------------------------------------------------------------------|




Lead line over riffs (any combination of riffs that sound good)
e|--------------------------------------------------------------------------------------------------------|
B|----8--10-10---10-10---10-10---10-10---p8----8-----------------------------------------------|
G|----------------------------------------------------9----9--7--9--p7--5--7--5---------------------|
D|-----------------------------------------------------------------------------------7-------------------|
A|--------------------------------------------------------------------------------------------------------|
E|---------------------------------------------------------------------------------------------------------|

e|--------------------------------------------------------------------------------------------------------|
B|--------------------------------------------------------------------------------------------------------|
G|----5--7-7---7-7---7-7---7-7---p5-----5-----------------------------------------------------------|
D|----------------------------------------7-----7--5--7--p5------5------------------------------------|
A|--------------------------------------------------------------7------7--5------------------------------|
E|---------------------------------------------------------------------------------------------------------|
[ Tab from: http://www.guitartabs.cc/tabs/e/ed_sutton_band/stepping_on_it_tab.html ]
e|--------------------------------------------------------------------------------------------------------|
B|--------------------------------------------------------------------------------------------------------|
G|----------------------------------------------------------------------------------------7b9----5------|
D|------------------------------------------------------------------------~5-----5--~7-------7-----7--|
A|----5--6--p5------5--6--p5------5--6--p5-----5--3--0--3--5-6-7-------7------------------------|
E|-----------------8--------------8--------------8-----------------------------------------------------|

e|---------------------------------------------5-----------------------------------------------------------|
B|-----------------------------------------5-----7--p5------5--------------------------------------------|
G|----7----5--/6------------------7b9-------------------7------7---7---p5---------------------------|
D|-------------------7---5---7------------------------------------------------~5-----------------------|
A|---------------------------------------------------------------------------------------------------------|
E|---------------------------------------------------------------------------------------------------------|


e|---------------------------------------------5--------------------------------------------------------------|
B|-----------------------------------------5-----7--p5------5---/8---8--10-10--10-10--10-10-10-|
G|----7----5--/6------------------7b9-------------------7------------------------------------------------|
D|-------------------7---5---7------------------------------------------------------------------------------|
A|------------------------------------------------------------------------------------------------------------|
E|------------------------------------------------------------------------------------------------------------|



e|-------------------------------------------------------------------------------------------------------------|
B|---10-10---p8----8-------------------------------------------------------------------------------------|
G|-----------------9----9--7--9--p7--5--7--5------5--7-7---7-7---7-7---7-7--p5------5---------|
D|------------------------------------------------7---------------------------------------7-----------------|
A|------------------------------------------------------------------------------------------------------------|
E|------------------------------------------------------------------------------------------------------------|


e|------------------------------------------------------------------------------------------------------------|
B|------------------------------------------------------------------------------------------------------------|
G|-----------------------------------------------------------------------------------------------------------|
D|----7--5--7--p5------5----------------------------------------------------------------------------------|
A|--------------------7------7--5----5--6--p5------5--6--p5------5--6--p5--------------------------|
E|-------------------------------------------------8---------------8-----------------8-------------------|


e|-----------------------------------------------------------|
B|-----------------------------------------------------------|
G|-----------------------------------------7b9-----5-------|
D|-------------------------~5-----5--~7-------7-----7----|
A|---5--3--0--3--5-6-7-------7---------------------------|
E|-----------------------------------------------------------|


Basically just improvise after this.

| /  slide up
|   slide down
| h  hammer-on
| p  pull-off
| ~  vibrato
| +  harmonic
| x  Mute note
===============================================================================
Comments