Ed Sheeran - Skinny Love Chords & Tabs

 

Ed Sheeran Chords & Tabs

Version: 1 Type: Chords 0 ratings
1 star 2 stars 3 stars 4 stars 5 stars
comments

Skinny Love Chords

   
-------------------------------------------------------------------------------
			     Skinny Love - Ed Sheeran (The Sun Biz Sessions)
-------------------------------------------------------------------------------
Tabbed by: Ed Jones-West
Email: King_elessar99@hotmail.com

Tuning: Standard, Capo 1st fret, chords relative to capo.

Beautiful cover of a beautiful song, originally by Bon Iver.
-------------------------------------------------------------------------------

Chords Used:

    Em   C   G  Em7  Cadd9  Am7

e|--0----0---3---3-----3-----0-----------------------------------------------|
B|--0----1---3---3-----3-----1-----------------------------------------------|
G|--0----0---0---0-----0-----0-----------------------------------------------|
D|--2----2---0---0-----2-----2-----------------------------------------------|
A|--2----3---2---2-----3-----0-----------------------------------------------|
E|--0----0---3---0-----0-----0-----------------------------------------------|




Intro: Em C G G x 4

Em              C                   G          G
Come on skinny love just last the year
Em              C                   G          G
Pour a little salt we were never here
        Em           C         G       
My, my, my, my, my, my, my, my
                Am7                       Em
Staring at the sink of blood and crushed veneer
[ Tab from: http://www.guitartabs.cc/tabs/e/ed_sheeran/skinny_love_crd.html ]
Em           C              G        G
  I tell my love to wreck it all
Em               C               G        G
Cut out all the ropes and let me fall
         Em          C        G       
My, my, my, my, my, my, my, my
              Am7                 Em
Right in the moment this order's tall


G
I told you to be patient
  Em7           Cadd9
I told you to be fine
G
I told you to be balanced
   Em7           Cadd9
I told you to be kind
G
In the morning I'll be with you
       Em7                  Cadd9
But it will be a different "kind"
G
I'll be holding all the tickets
              Em7            Cadd9
And you'll be owning all the fines

Em             C                   G         G
Come on skinny love what happened here
Em             C                   G         G
Suckle on the hope in lite brassiere
        Em           C         G
My, my, my, my, my, my, my, my
       Am7                        Em
Sullen load is full; slow on the split
G
I told you to be patient
       Em7       Cadd9
I told you to be fine
G
I told you to be balanced
       Em7       Cadd9
I told you to be kind
G
Now all your love is wasted?
        Em7         Cadd9
Then who the hell was I?
G
Now I'm breaking at the britches
           Em7              Cadd9
And at the end of all your lines

G
  Who will love you?
Em7         Cadd9
  Who will fight?
G
  Who will fall
Em7       Cadd9
  far behind?

G
  Who will love you?
Em7         Cadd9
  Who will fight?
G
  Who will fall
Em7        Cadd9
  far behind?

Outro: Em C G G x 4
Comments