Ed Sheeran - Kiss Me Chords & Tabs

 

Ed Sheeran Chords & Tabs

Version: 1 Type: Tab 0 ratings
1 star 2 stars 3 stars 4 stars 5 stars
comments

Kiss Me Tab

Standard Tuning.
Sorry if it isn't perfect but I self taught myself and I've never done that before.
Follow me on Twitter- waggledagger69
There are some vibrato's in there somewhere but it usually comes naturally when you
know it so well.

Please Enjoy!

[ Tab from: http://www.guitartabs.cc/tabs/e/ed_sheeran/kiss_me_tab.html ]
e|-----------------------------------------------------------------------------|
B|--------------10----------------------7-------------------------------10-----|
G|----7/9----10b12b10---9-7---7-7-7-9-7----------------------7-----7--9b11b9---|
D|-----------------------------------------------7-----5-7-9---9-7-------------|
A|-----------------------------------------5-7-9--9----------------------------|
E|-----------------------------------------------------------------------------|

e|------------------------------------------------------10-10/13b15b13/10------|
B|------------------------------------------------12-10------------------------|
G|---7--7-9-9b11--9b11-9b11-9b11-9b11b9-9-7--9-11------------------------------|
D|-----------------------------------------------------------------------------|
A|-----------------------------------------------------------------------------|
E|-----------------------------------------------------------------------------|
Comments