Econoline Crush - Burnt Chords & Tabs

 

Burnt Chords & Tabs

Econoline Crush Chords & Tabs

Version: 2 Type: Tab 0 ratings
1 star 2 stars 3 stars 4 stars 5 stars
comments

Burnt Tab

   
Tabbed By: Cyrus187
e-mail: coldstorerage@hotmail.com
This is the whole tab, the timing is pretty much right, but i'm sure you're
smart enough to work any of the timing if it's slightly wrong.Happy Playing!


Riff A (intro)
e|-----------------------------------------------------------------------|
B|-----------------------------------------------------------------------|
G|-----------------------------------------------------------------------|
D|-------------------------------------------------------5-5/6-6-5-5/6-6-|X2
A|---------------------------------~~--------------------5-5/6-6-5-5/6-6-|
D|-0-0-10-0-0-12-0-0-10-0-0-12-0-0-10--0-0-10-0-0-12-0-0-5-5/6-6-5-5/6-6-|

Riff B
D|-5-5/6-6-5-5/6-6-|
A|-5-5/6-6-5-5/6-6-|X2
D|-5-5/6-6-5-5/6-6-|


Riff A
e|-----------------------------------------------------------------------|
B|-----------------------------------------------------------------------|
G|-----------------------------------------------------------------------|
D|-------------------------------------------------------5-5/6-6-5-5/6-6-|X2
A|---------------------------------~~--------------------5-5/6-6-5-5/6-6-|
D|-0-0-10-0-0-12-0-0-10-0-0-12-0-0-10--0-0-10-0-0-12-0-0-5-5/6-6-5-5/6-6-|


Riff C
e|---------------------------------|
B|---------------------------------|
G|---------------------------------|
D|-7p0-0-0-3-3-3-3-5-5-5-5-5-5-5-5-|X4
A|-7p0-0-0-3-3-3-3-5-5-5-5-5-5-5-5-|
D|-7p0-0-0-3-3-3-3-5-5-5-5-5-5-5-5-|


Riff D
e|----------------------------------------------------------------|
B|----------------------------------------------------------------|
G|-7-7-7-7-7-7-7-7/9-9-9-9-9-9-9-9\5-5-5-5-5-5-5-5/7-7-7-7-7-7-7-7|
D|----------------------------------------------------------------|X2
A|----------------------------------------------------------------|
D|----------------------------------------------------------------|


Riff A
e|-----------------------------------------------------------------------|
B|-----------------------------------------------------------------------|
G|-----------------------------------------------------------------------|
D|-------------------------------------------------------5-5/6-6-5-5/6-6-|X2
A|---------------------------------~~--------------------5-5/6-6-5-5/6-6-|
D|-0-0-10-0-0-12-0-0-10-0-0-12-0-0-10--0-0-10-0-0-12-0-0-5-5/6-6-5-5/6-6-|


Riff B
D|-5-5/6-6-5-5/6-6-|
A|-5-5/6-6-5-5/6-6-|X2
D|-5-5/6-6-5-5/6-6-|


Riff C
e|---------------------------------|
B|---------------------------------|
G|---------------------------------|
D|-7p0-0-0-3-3-3-3-5-5-5-5-5-5-5-5-|X4
A|-7p0-0-0-3-3-3-3-5-5-5-5-5-5-5-5-|
D|-7p0-0-0-3-3-3-3-5-5-5-5-5-5-5-5-|

[ Tab from: http://www.guitartabs.cc/tabs/e/econoline_crush/burnt_tab_ver_2.html ]
Riff D
e|----------------------------------------------------------------|
B|----------------------------------------------------------------|
G|-7-7-7-7-7-7-7-7/9-9-9-9-9-9-9-9\5-5-5-5-5-5-5-5/7-7-7-7-7-7-7-7|
D|----------------------------------------------------------------|X2
A|----------------------------------------------------------------|
D|----------------------------------------------------------------|



Riff C (shortened)
e|----------------------|
B|----------------------|
G|----------------------|
D|-7p0-0-0-3-3-3-3-5-5-5|X3
A|-7p0-0-0-3-3-3-3-5-5-5|
D|-7p0-0-0-3-3-3-3-5-5-5|


Riff C
e|---------------------------------|
B|---------------------------------|
G|---------------------------------|
D|-7p0-0-0-3-3-3-3-5-5-5-5-5-5-5-5-|X1
A|-7p0-0-0-3-3-3-3-5-5-5-5-5-5-5-5-|
D|-7p0-0-0-3-3-3-3-5-5-5-5-5-5-5-5-|



Riff D
e|----------------------------------------------------------------|
B|----------------------------------------------------------------|
G|-7-7-7-7-7-7-7-7/9-9-9-9-9-9-9-9\5-5-5-5-5-5-5-5/7-7-7-7-7-7-7-7|
D|----------------------------------------------------------------|X1
A|----------------------------------------------------------------|
D|----------------------------------------------------------------|


Solo
e|-------------------------------10-8|
B|-------------------------10-13-----|
G|-------------12-14-12-15-----------|
D|-12-14-15-17-----------------------|X4
A|-----------------------------------|
D|-----------------------------------|


Riff D
e|----------------------------------------------------------------|
B|----------------------------------------------------------------|
G|-7-7-7-7-7-7-7-7/9-9-9-9-9-9-9-9\5-5-5-5-5-5-5-5/7-7-7-7-7-7-7-7|
D|----------------------------------------------------------------|X1
A|----------------------------------------------------------------|
D|----------------------------------------------------------------|


Riff C
e|---------------------------------|
B|---------------------------------|
G|---------------------------------|
D|-7p0-0-0-3-3-3-3-5-5-5-5-5-5-5-5-|X4
A|-7p0-0-0-3-3-3-3-5-5-5-5-5-5-5-5-|
D|-7p0-0-0-3-3-3-3-5-5-5-5-5-5-5-5-|


Riff D
e|----------------------------------------------------------------|played
B|----------------------------------------------------------------|till
G|-7-7-7-7-7-7-7-7/9-9-9-9-9-9-9-9\5-5-5-5-5-5-5-5/7-7-7-7-7-7-7-7|end
D|----------------------------------------------------------------|under
A|----------------------------------------------------------------|solo
D|----------------------------------------------------------------|


Solo
e|-------------------------------10-8|
B|-------------------------10-13-----|
G|-------------12-14-12-15-----------|
D|-12-14-15-17-----------------------|X8
A|-----------------------------------|
D|-----------------------------------|
Comments