Echo And The Bunnymen - Baseball Bill Chords & Tabs

 

Baseball Bill Chords & Tabs

Echo And The Bunnymen Chords & Tabs

Version: 1 Type: Tab 0 ratings
1 star 2 stars 3 stars 4 stars 5 stars
comments

Baseball Bill Tab

   
  So... one more song... I liked this so much it's so movemented... there is the tab...
follow down:

Chords:

C - x32010
D - xx0232
G - 320033
Am - x02210
A# - x13331

The (whole) stuff:

(> - let ring a little)

|----------------| (10x) (sometimes it changes a little)
|----------------|
|----------------|
|---5-5-5-5>/3---|
|----------------|
|----------------|

Two guitars on this part:

First One:

|--------------------------------------------------|
|--------------------------------------------------|
|--------------------------------------------------|
|---5-5-5-3---------------5-5-5-3------------3-5---|
|-----------5-3--3-1/3-1----------5-3--3-1/3-------|
|--------------------------------------------------|


Second One (before the first one slides):

|-------------|
|-------------|
|---3/5/3-0---|
|-------------|
|-------------|
|-------------|


G
Here I go, it must be four in a row
  C                        G
I gotta get my head down tonight
G
But you know I know, when the streets are aglow
        C                        G
I'll be heading for the city of light

(Then the two guitars again throughout the chorus)

G                  C
Are you talkin' to me?
G                    C     A# Am  G
'Cause I don't wanna know, no, no, no
G               C
You can't even see 
G                  C    A# Am  G
What's already on show, oh, oh, oh

G, C, G

G
I'm hitting my prime and you're wasting my time
         C                    G
You're denominator commonest low
G
My head's burning up and I'm down on my luck
C                    G
See you in the 48th row
G
With a matchbox full and a sulphurous skull
C                         G
Trying to set my mind to rights
G
I'm gonna burn burn burn as the universe turns
C                       G
Out of mind and out of sight

(Then the two guitars again throughout the chorus)

G                  C
Are you talkin' to me?
G                    C     A#  Am  G
'Cause I don't wanna know, no, no, no
G               C
You can't even see 
G                  C    A#  Am  G
What's already on show, oh, oh, oh

A#, C, A#, C
[ Tab from: http://www.guitartabs.cc/tabs/e/echo_and_the_bunnymen/baseball_bill_tab.html ]
|-----------------------------------|
|-----------------------------------| (2x)
|---3--2/3--3-3---------------------|
|---------------3-2--2-2-3-2--3-2---|
|-----------------------------------|
|-----------------------------------|

G

|----------------| (While G)
|----------------|
|----------------|
|---5-5-5-5>/3---|
|----------------|
|----------------|

G, C, G

G
Baseball bill went in for the kill
   C                          G
He blew it when he found his soul
G
Lost his will to live when he saw someone give
       C                        G
'Cause giving always takes its toll

(Two guitars again)

G                  C
Are you talkin' to me?
G                    C     A#  Am  G
'Cause I don't wanna know, no, no, no
G               C
You can't even see 
G                  C    A#  Am  G
What's already on show, oh, oh, oh

G                  C
Are you talkin' to me?
G                    C     A#  Am  G
'Cause I don't wanna know, no, no, no
G               C
You can't even see 
G                  C    A#  Am  G
What's already on show, oh, oh, oh

A#, C

|--------------------------------------|
|--------------------------------------| (2x)
|---3--2/3--3-3\1----------------------|
|------------------3-2--2-2-3-2--3-2---|
|--------------------------------------|
|--------------------------------------|


|--------------------------------------------------------------|
|---3--3-3-3-3--1-1--1-3-1--3--3-3-3-3--3/6--6-6-6--5\3--1/3---|
|--------------------------------------------------------------|
|--------------------------------------------------------------|
|--------------------------------------------------------------|
|--------------------------------------------------------------|

(And the final solo you can pick up easily, is too long to put here)

A# C
Oh Baseball Bill
A# C
Oh Baseball Bill
A# C
Oh Baseball Bill
A# C
Oh Baseball Bill

A# C
Oh Baseball Bill
A# C
Oh Baseball Bill
A# C
Oh Baseball Bill
A# C              D
Oh Baseball Bill

   And that's it... I think the chords are exact... the solos, almost... but get it
listening to the song... anything, email to s.chapuisat@bol.com.br... see you...
Comments