Echo And The Bunnymen - All My Colours Chords & Tabs

 

All My Colours Chords & Tabs

Echo And The Bunnymen Chords & Tabs

Version: 1 Type: Bass Tab

All My Colours Bass Tab

   
ALL MY COLOURS
Echo And The Bunnymen

Taken from the Warner album Heaven Up Here (1981/2003 Reissue)

Transcribed by: Damian Pamminger (TwitcheD_85@hotmail.com)

Standard tuning: E A D G
[ Tab from: http://www.guitartabs.cc/tabs/e/echo_and_the_bunnymen/all_my_colours_btab.html ]
Fig. 1
|-10----9------10-----9-----10---14----12---9-----10---14---12----9--------------|
|----0----0-------0-----0------0----0-----0----0-----0-----0----0---0------------|
|--------------------------------------------------------------------------------|
|--------------------------------------------------------------------------------|
<-8x-><-8x-><-8x-><-7x->         <-7x->        <-7x->        <-7x->        <-6x--|

|-0-2----|
|------3-|
|--------|
|--------|

Fig. 2a
|--------------------------|
|--------------------------|
|-5------------3-----------|
|--------------------------|

Fig. 2b
|-------------------------2-----|
|-----------------------------3-|
|-5--------0---3----------------|
|-------------------------------|