Ebba Gron - Totalvagra Chords & Tabs

 

Totalvagra Chords & Tabs

Ebba Gron Chords & Tabs

Version: 1 Type: Bass Tab

Totalvagra Bass Tab

Intro
E:5-5-5-5---5-5-5-5-5---5-|
A:--------5-----------7---|   x2
D:------------------------|
G:------------------------|

E:2/3-3-3-3-2/3-3-3-3-------------|
A:--------------------3-3-3-3-0-0-|
D:--------------------------------|
G:--------------------------------|
[ Tab from: http://www.guitartabs.cc/tabs/e/ebba_gron/totalvagra_btab.html ]
E:2/3-3-3-3-2/3-3-3-3-------------5-5-|
A:--------------------3-3-3-3-0-0-----|
D:------------------------------------|
G:------------------------------------|


Verse:
E:5-5-5-5-----5-5-5-5-5---5-|
A:--------5-5-----------7---|   x2
D:--------------------------|
G:--------------------------|


Chorus
E:--------5-5-3------------------|
A:7-7-7-7-------5-5-5-3-5-5-5-5--|
D:-------------------------------| x2
G:-------------------------------|