Ebba Gron - Hang Gud Chords & Tabs

 

Hang Gud Chords & Tabs

Ebba Gron Chords & Tabs

Version: 1 Type: Tab 0 ratings
1 star 2 stars 3 stars 4 stars 5 stars
comments

Hang Gud Tab

okay i think this is right. i search on another tab and that just dint sound right, so i 
listen to the song played.

------------------------------------------------------------|
------------------------------------------------------------|
------------------------------------------------------------|
----2-2--4-----4-2-2-4--------------------------------------|
----2-2--4-----4-2-2-4--------------------------------------|
----0-0--2-----2-0-0-2--------------------------------------|
  let ring


---------------------------------------------------------------|
---------------------------------------------------------------|
---------------------------------------------------------------|  x4
--4-2-2-4------------------------------------------------------|
--4-2-2-4------------------------------------------------------|
--2-0-0-2--5-6-7-----------------------------------------------|

[ Tab from: http://www.guitartabs.cc/tabs/e/ebba_gron/hang_gud_tab.html ]
gud e rasit! gud e facist.........
------------------------------------------------------------|
------------------------------------------------------------|
------------------------------------------------------------|
-----2-2-4-4-4-4-4-4----------------------------------------|  verse
-----2-2-4-4-4-4-4-4----------------------------------------|
-----0-0-2-2-2-2-2-2----------------------------------------|

med präster å påvar har han  lurat miljoner....
------------------------------------------------------------|
------------------------------------------------------------|
------------------------------------------------------------|
-----5-5-5-4-4-4-4-9-9-9-9-13-13-13-13-13-------------------|
-----5-5-5-4-4-4-4-9-9-9-9-13-13-13-13-13-------------------|
-----3-3-3-2-2-2-2-7-7-7-7-11-11-11-11-11-------------------|
har han några känslor för nån.....
------------------------------------------------------------|
------------------------------------------------------------|
-----7-7-7-7--6-6-6-6---------------------------------------|
-----7-7-7-7--6-6-6-4---------------------------------------|  x2
-----5-5-5-5--4-4-4-4---------------------------------------|
------------------------------------------------------------|


HÄNG GUUD!!!
------------------------------------------------------------|
------------------------------------------------------------|
------------------------------------------------------------|
--4-2-2-4---------------------------------------------------|x4
--4-2-2-4---------------------------------------------------|
--2-0-0-2--5-6-7--------------------------------------------|

sorry but i didnt know the solo..its to hard. please rate

     bye kurt-dave_krist
Comments