Ebba Gron - 800 Grader Chords & Tabs

 

800 Grader Chords & Tabs

Ebba Gron Chords & Tabs

Version: 2 Type: Tab 0 ratings
1 star 2 stars 3 stars 4 stars 5 stars
comments

800 Grader Tab

|-------------------------------------------------------------|
|-------------------------------------------------------------|
|-------------9-9-9-9-11-9------------------------------------|
|-7-7-7>9-9-9-9-9-9-9-11-9------------------------------------|
|-7-7-7>9-9-9-7-7-7-7-9--7------------------------------------|
|-5-5-5>7-7-7-------------------------------------------------|

|-------------------------------------------------------------|
|-------------------------------------------------------------|
|---------------9-9-9-11-9------------------------------------|
|-7-----9-------9-9-9-11-9------------------------------------|
|-7-----9-------7-7-7-9--7------------------------------------|
|-5-----7-----------------------------------------------------|
[ Tab from: http://www.guitartabs.cc/tabs/e/ebba_gron/800_grader_tab_ver_2.html ]
|-------------------------------------------------------------|
|-------------------------------------------------------------|
|-------------9-9-9-9-9-9-7-7-7-7-7-7-------------------------|
|-7-7-7-7-7-7-9-9-9-9-9-9-7-7-7-7-7-7-7-7-7-7-7-7-------------|
|-7-7-7-7-7-7-7-7-7-7-7-7-5-5-5-5-5-5-7-7-7-7-7-7-------------|
|-5-5-5-5-5-5-------------------------5-5-5-5-5-5-------------|

|-------------------------------------------------------------|
|-------------------------------------------------------------|
|-------------------------4-4-4-4-4-4-------------------------|
|-4-4-4-4-4-4-2-2-2-2-2-2-4-4-4-4-4-4-4-4-4-4-4-4-------------|
|-4-4-4-4-4-4-2-2-2-2-2-2-2-2-2-2-2-2-4-4-4-4-4-4-------------|
|-2-2-2-2-2-2-0-0-0-0-0-0-------------2-2-2-2-2-2-------------|

I made this very simple...
I hope for your own good that u can hear how many times you should play each part
Comments