Ebba Gron - 800 Grader Chords & Tabs

 

800 Grader Chords & Tabs

Ebba Gron Chords & Tabs

Version: 1 Type: Tab 0 ratings
1 star 2 stars 3 stars 4 stars 5 stars
comments

800 Grader Tab

Artist: Ebba Grön
Song: 800 grader
Tabbed by: Adam Widing
Please correct me if the tabis wrong
Kaffe_Drick@hotmail.com

Intro: 4x

e|------------------|
b|------------------|
g|------------------|
d|--------79-11-79--|
a|--77-79-79-9--79--|
E|--55-79-----------|

Verse: 4x

e|------------------|
b|------------------|
g|------------------|
d|--------79-11-79--|
a|--77-79-79-9--79--|
E|--55-79-----------|
[ Tab from: http://www.guitartabs.cc/tabs/e/ebba_gron/800_grader_tab.html ]
Pre Chours: 2x
e|-------------------|
b|-------------------|
g|-------------------|
d|-------9---7-------|
a|--7----7---5----7--|
E|--5-------------5--|

Chours: 2x
e|------------------------------------------|
b|------------------------------------------|
g|------------------------------------------|
d|----------------------44444444------------|
a|--44444444--22222222--22222222--44444444--|
E|--22222222--00000000------------22222222--|
Comments