Ebb Tyde - Fine Blue Chords & Tabs

 

Fine Blue Chords & Tabs

Ebb Tyde Chords & Tabs

Version: 1 Type: Bass Tab 0 ratings
1 star 2 stars 3 stars 4 stars 5 stars
comments

Fine Blue Bass Tab

   
Artist: Ebb Tyde

Song Title: Fine Blue

Released: 1999

Tabber: Jordan Waters

Tuning: E A D G


   Intro/Bridge                                      (guitar enters)
               E                       E                 G       A   
[--------------------------------|----------------------------------]
[-2--------2--------2--------2/7-|----------------------------------]
[--0-2-0-2--0-2-0-2--0-2-0-2-----|r-r-r-r-r-r-r-r-r-r-r-r-r-r-r-r-r-]
[--------------------------------|----------------------------------]


[ Tab from: http://www.guitartabs.cc/tabs/e/ebb_tyde/fine_blue_btab.html ]
Verse
   E           G        A            
[-----9-9---------------------|---|
[------------------5---------7|---| x3
[--7--------------------------|---|
[----------0---3-3---4--5-5---|7--|



CHorus
                			E                   G       A
[-----------------------------0-2-0-2|--------------------------------]
[----------2-----------------2-------|--------------------------------]
[-r-r-r-r---0-2-0-2--r-r-r-r---------|r-r-r-r-r-r-r-r-r-r-r-r-r-r-r-r-]
[------------------------------------|--------------------------------]

 This hasn't benn put on cd or in any audio yet but i heard a demo.So
theses are the chords.I suggest you find the music soon.I will be adding 
a link to a real player sample of the song so you can get the beat.I thin
the bass line is pretty funky.

Heres The order

Intro

Verse

Chorus

Bridge

Verse

Chorus

Comments