Easyworld - Bleach Chords & Tabs

 

Bleach Chords & Tabs

Easyworld Chords & Tabs

Version: 1 Type: Bass Tab 0 ratings
1 star 2 stars 3 stars 4 stars 5 stars
comments

Bleach Bass Tab

Easyworld- Bleach

Intro

G\--------------------------------\
D\--------------------------------\
A\--------------------------------\
E\-88--88--88--88--88--88--88-----\

Verse

G\------------------------------------------------------\
D\------------------------------------------------------\
A\-------------1010101010101010/88888888/5555/10101010--\  
E\88888888----------------------------------------------\ x4                                    

"oh i know"
G\------------------\
D\------8-----------\
A\---11-------------\
E\------------------\

Chorus
[ Tab from: http://www.guitartabs.cc/tabs/e/easyworld/bleach_btab.html ]
G--------------------------------------
D--------------------------------------
A-----------88888888/55555555/88888888-
E-888888-------------------------------        x2

Bridge

G\-----------------------------------------------------------------------------\
D\-----------------------------------101099--------------------------------88--\
A\10101010888810101010---------8888810101010101111-----------------------------\
E\-----------------------------------------------------------------------------\ 
(unsure about this bit)

Solo

G\------------------------------------------------------\
D\------------------------------------------------------\
A\-------------1010101010101010/88888888/5555/10101010--\  
E\88888888----------------------------------------------\
Comments