Easybeats - Friday On My Mind Chords & Tabs

 

Friday On My Mind Chords & Tabs

Easybeats Chords & Tabs

Version: 1 Type: Tab 0 ratings
1 star 2 stars 3 stars 4 stars 5 stars
comments

Friday On My Mind Tab

Friday On My Mind - The Easybeats
tabbed by blamft (blamft@hotmail.com)

There are tabs kicking around with the chords and where to play 'em; i've focused on the riffs that crop up.  I've given vocal reminders so you know where to come in.  If the lead guitar isn't playing a riff, then it's doing what the rhythm guitar is doing.

The riffs:
Riff 1 (just after " Comin' Tuesday i feel better")
----------------------
-------8-9~-8-9-8-6-3- (i think - this one was a real bitch)
-9-8-9----------------
----------------------
----------------------
----------------------
[ Tab from: http://www.guitartabs.cc/tabs/e/easybeats/friday_on_my_mind_tab.html ]
Riff 2 (after "Even my old man looks good")
--------------------
-5-6-5-3-5-3-2-0-2~-
--------------------
--------------------
--------------------
--------------------

Riff 3 ("Wednesday just don't go, Thursday goes too slow")
------------5-6-5-3-5-3-1-0-1--
-2-22-2-3~---------------------
-------------------------------
-------------------------------
-------------------------------
-------------------------------

Riff 4 (At the end of each of the first 2 lines of verse)
--------------------
--------------------
-6-7-6-4-6-4-2-1-2--
--------------------
--------------------
--------------------
 
Comments