East West - Drink Me Chords & Tabs

 

Drink Me Chords & Tabs

East West Chords & Tabs

Version: 1 Type: Tab 0 ratings
1 star 2 stars 3 stars 4 stars 5 stars
comments

Drink Me Tab

   
Drink Me
by East West
c2004 Floodgate Records

Drop B tuning

1st intro part

C#-----------------------|
G#-----------------------|
E------------------------|
B--2-0-0-2-0-0-2-0-0-2-5-|
F#-2-0-0-2-0-0-2-0-0-2-5-|
B--2-0-0-2-0-0-2-0-0-2-5-|

2nd intro part/Chorus

C#-------------------|
G#-------------------|
E--------------------|
B--9-9-9-9-9-9-9-9-9-|
F#-7-7-7-7-7-7-7-7-7-|
B--7-7-7-7-7-7-7-7-7-|
   x x x x x x x x x=Palm Mute

Verse(picked)

C#---------|
G#---------|
E----------|
B--2--5--7-|
F#-2--5--7-|
B--2--5--7-|

Solo(this is pretty close)
[ Tab from: http://www.guitartabs.cc/tabs/e/east_west/drink_me_tab.html ]
C#----------------------------------------------------------|
G#----------------------------------------------------------|
E-----------------------------------------------------------|
B-----------------------------------------------------------|
F#--7-9-10-10-10-10/9-9/10-9-7-9/10-10-10/12-12-14-14-12-14-|
B-----------------------------------------------------------|

Next

C#--------------------------------------------------------|
G#--------------------------------------------------------|
E---------------------------------------------------------|
B---------------------------------------------------------|
F#--14/12-12-12/10-10-10-10-9-7-7-9-10-10-10/12-12-10-9-7-|
B---------------------------------------------------------|

Ending solo

C#----------------------------------------------------------|
G#----------------------------------------------------------|
E-----------------------------------------------------------|
B---5-4-4-5-4-4-5-4-4-4-5-4-2-0-5-4-4-5-4-4-5-4-4-4-5-5-7-9-|
F#----------------------------------------------------------|
B-----------------------------------------------------------|

And I think that's pretty much it.
Comments