Earthtone9 - I Nagual Eye Chords & Tabs

 

I Nagual Eye Chords & Tabs

Earthtone9 Chords & Tabs

Version: 1 Type: Tab 0 ratings
1 star 2 stars 3 stars 4 stars 5 stars
comments

I Nagual Eye Tab

          Band: Earthtone9
          Song: 'I nagual eye'
          Tuning: Standard
          
          Transcribed by Lee Gledhill AKA (LeeWee)
          
          
          Intro = high pitch feedback
          Drums enter.......
          e|---------------------------------------------------
          B|-20-------14--------------------/9=~slowly bend----
          G|---------------------------------------------------
          D|---------------------------------------------------
          A|---------------------------------------------------
          E|---------------------------------------------------
          
          Verse: play 8x = distortion
          Vocals enter......
          e|----------------------------------------------------------------------
          B|----------------------------------------------------------------------
          G|----------------------------------------------------------------------
          D|----------------------------------------------------------------------
          A|10--10--10--10--10--10--10--10/-4---10--10--10--10--10--10--10--10/-3-
          E|8---8---8---8---8---8---8---8-/-2---8---8---8---8---8---8---8---8-/-2-
          
          Chorus: play 2x = distortion
          e|-----------------------------------------------------
          B|-----------------------------------------------------
          G|-----------------------------------------------------
          D|-----------------------------------------------------
          A|-10-=x11/-13-=x12/-12-=x9/-13-13/-12-12-12/-8-=x7----
          E|-8------/-11-----/-10----/-11-11/-10-10-10/-6--------
          
          Bridge: Leading to weird solo
          e|-------------------------------------------------------
          B|-------------------------------------------------------
          G|-------------------------------------------------------
          D|-------------------------------------------------------
          A|-10-10-10-10/-12-12-12-12/-13-13-13-13/-16-16-16-16----
          E|-8--8--8--8-/-10-10-10-10/-11-11-11-11/-14-14-14-14----
          
          Phat Riff towards outro:
          e|---------------------------------------------------
          B|---------------------------------------------------
          G|---------------------------------------------------
          D|---------------------------------------------------
          A|---------------------------------------------------
          E|-0-3h4-0-3h4-0-3h4-0-3h4-13-9-------------------------
          
          
          Dont want to tab the solo. There aint much tabs out there for 
          earthtone9 but this song was asking to be played.
          
          / = slide
          ~ = bend
          h = hammer on
[ Tab from: http://www.guitartabs.cc/tabs/e/earthtone9/i_nagual_eye_tab.html ]
Comments