Earth Crisis - The Wrath Of Sanity Chords & Tabs

 

The Wrath Of Sanity Chords & Tabs

Earth Crisis Chords & Tabs

Version: 1 Type: Tab 0 ratings
1 star 2 stars 3 stars 4 stars 5 stars
comments

The Wrath Of Sanity Tab

Earth Crisis - The wrath of sanity

Tabbed by Johannes Persson
Mail me with any corrections or comments at jenovahproject@hotmail.com

Tune down the guitar to drop-D

pm=palm mute
/=slide

Guitar riff1

E---------------------------------
B---------------------------------
G---------------------------------
D---------------------------------
A---0--0--0--0--0-0-0-0-0-0-0-0---
D---0--0--0--0--0-0-0-0-0-0-0-0---
   pm..........................

X3 Then:

E-------------------------
B-------------------------
G-------------------------
D---3-------3-------3/6---
A---1--0-0--1--0-0--1/4---
D------0-0-----0-0--------
       pm.     pm.

Guitar#2 riff1

E-----------------------------------
B-----------------------------------
G-----------------------------------
D---7----8-10--8--7----5--7--8--7---
A---5----6--8--6--5----3--5--6--5---
D-----------------------------------

Guitar riff2
[ Tab from: http://www.guitartabs.cc/tabs/e/earth_crisis/the_wrath_of_sanity_tab.html ]
E------------------------------------------------------------------
B------------------------------------------------------------------
G------------------------------------------------------------------
D-7------7--8--7----7/8-10/8-5/8---7------7--8--7-----7/8--7/10-10-
A-5--0-0-5--6--5--0-5/6-8/6-3/6----5--0-0-5--6--5--0--5/6--6/8-8---
D----0-0----------0-------------------0-0----------0---------------
    pm..         pm                  pm..         pm

Guitar riff3

E-------------------------
B-------------------------
G-------------------------
D-------------------------
A---0--------0--1--0--1---
D---0-----------------1---

Guitar riff4

E------------------------------------
B------------------------------------
G------------------------------------
D------------------------------------
A---0--0--0--0--0-0-0---0-0-0---0--6-
D---0--0--0--0--0-0-0---0-0-0---0--8-
   pm.............................

Guitar#2 riff2

E------------------------------------
B------------------------------------
G------------------------------------
D------------------------------------
A---0--0--0--0--0-0-0---0-0-0---0--1-
D---0--0--0--0--0-0-0---0-0-0---0--1-
   pm.............................
Comments