Earth Crisis - Ecocide Chords & Tabs

 

Ecocide Chords & Tabs

Earth Crisis Chords & Tabs

Version: 1 Type: Tab 0 ratings
1 star 2 stars 3 stars 4 stars 5 stars
comments

Ecocide Tab

   
            Earth Crisis
            "Ecocide"
          Drop D Tuning
          PM....= Palm Mute
          /or\= slide up or down
          
          Riff 1
          E-------------------------------
          B-------------------------------
          G------------------------------5  (2x)
          D---------0--------------------5
          A---------0(let ring)--3-3-3-3-3
          D-0-0-0-0-0---------------------
            PM.....              .......     
          
          Riff 2
          E-----------------------------------------------------------------------------------------------
          B-----------------------------------------------------------------------------------------------
          G-----------------------------------------------------------5-------5-----5------5-------5-----5
          D(pick slide)-----0-------0-----0------0-------0-----0------5-------5-----5------5-------5-----5
          A-----------------0-------0-----0------0-------0-----0-3333-3-33333-3-333-3-3333-3-33333-3-333-3
          D------------0000-0-00000-0-000-0-0000-0-00000-0-000-0------------------------------------------
                       PM..   .....   ...   ....   .....   ...   ....   .....   ...   ....   .....   ...
          
          Riff 3
          E--------------------------------
          B--------------------------------
          G-------------------------------- (2x)
          D-0-0-00-000-6-1-0-0-00-33333-1-0
          A-0-0-00-000-6-1-0-0-00-33333-1-0
          D-0-0-00-000-6-1-0-0-00-33333-1-0
              PM......       ...  .....
          
          Riff 4
          E-------------------------------------------------------------------------
          B-------------------------------------------------------------------------
          G---------------------------------------------------------10-10-10-10-8-7\
          D-0-0-00-000-6-1-0-0-00-33333-1-0-0-0-00-000-6-1-0-0-00-0-10-10-10-10-8-7\ (2x)
          A-0-0-00-000-6-1-0-0-00-33333-1-0-0-0-00-000-6-1-0-0-00-0--8--8--8--8-6-5\ (on the second time let 
          D-0-0-00-000-6-1-0-0-00-33333-1-0-0-0-00-000-6-1-0-0-00-0-----------------  the last chord ring)
              PM......       ...  .....     ..........       ....
          Riff 5
          E---------------------------------------------------------
          B---------------------------------------------------------
          G--------------------------------------------------------- (3x)
          D---------0-0-0-0-0-0-0-0-0-0-0-0-0-0-0-0-0---------------
          A-1-0-1-0-0-0-0-0-0-0-0-0-0-0-0-0-0-0-0-0-0(let ring first
          D---------0-0-0-0-0-0-0-0-0-0-0-0-0-0-0-0-0-2 times)------
                     PM. ...   ... ...   ... ... ...
          
          Riff 6
          E------------------------------------
          B------------------------------------
          G------------------------------------
          D-8-8-8-8-8-6-6-7-7-7-0-00-00-0-00-00
          A-8-8-8-8-8-6-6-7-7-7-0-00-00-0-00-00
          D-8-8-8-8-8-6-6-7-7-7-0-00-00-0-00-00
          
          Song Order
          Riff 1
          Riff 2
          Riff 1
          Riff 3
          Riff 4
          Riff 5
          Riff 4
          Riff 6
          Riff 4 (only play it one time instead of two)
          Riff 3
          
          that's it, it's not that hard so have fun.
[ Tab from: http://www.guitartabs.cc/tabs/e/earth_crisis/ecocide_tab.html ]
Comments