Earshot - Wait Chords & Tabs

 

Wait Chords & Tabs

Earshot Chords & Tabs

Version: 2 Type: Tab 0 ratings
1 star 2 stars 3 stars 4 stars 5 stars
comments

Wait Tab

   
Tuning Dadgbe

(intro)
e------------------|
b------------------|
g------------------|
d-1p0-0-0-1p0-0-0--|  12X
a-1p0-0-0-1p0-0-0--|
d-1p0-0-0-1p0-0-0--|

The verse is just the intro palm muted

(chorus)
[ Tab from: http://www.guitartabs.cc/tabs/e/earshot/wait_tab_ver_2.html ]
e--------------------------|
b--------------------------|
g--------------------------|
d-2-2-2-2-2-2-5-5-5-5-5-5--|
a-0-0-0-0-0-0-3-3-3-3-3-3--|
d-0-0-0-0-0-0-3-3-3-3-3-3--|

d-10-10-10-10-10-10-|
a-8--8--8--8--8--8--|
d-8--8--8--8--8--8--|

you play the intro for the outro and palm mute open at the end

thats pretty much it
Comments