Earshot - Wait Chords & Tabs

 

Wait Chords & Tabs

Earshot Chords & Tabs

Version: 1 Type: Tab 0 ratings
1 star 2 stars 3 stars 4 stars 5 stars
comments

Wait Tab

0:00                         3x           I CAN WAIT (0:38)                
E||----------------------|--------------||--------------------|
B||----------------------|--------------||--------------------|
G||----------------------|--------------||--------------------|
D||----------------------|--------------||---2----------------|
A||--7--2--------7--2----|--------0--2--||---0----------------|
D||--7--2--------7--2----|--------0--2--||---0----------------|

[ Tab from: http://www.guitartabs.cc/tabs/e/earshot/wait_tab.html ]
                                                                               
------------------|-------------------|------------------|-------------------
------------------|-------------------|------------------|-------------------
------------------|-------------------|------------------|-------------------
------------------|--5----------------|------------------|--10---------------
------------------|--3----------------|------------------|--8----------------
------------------|--3----------------|------------------|--8----------------


                                                             3x
------------------|--------------------|----------------------||
------------------|--------------------|----------------------||
------------------|--------------------|----------------------||
------------------|--10----------------|--12-------------------||
------------------|--8-----------------|--10------------------||
------------------|--8-----------------|--10------------------||
Comments