Earshot - Get Away Chords & Tabs

 

Get Away Chords & Tabs

Earshot Chords & Tabs

Version: 1 Type: Tab 0 ratings
1 star 2 stars 3 stars 4 stars 5 stars
comments

Get Away Tab

Earshot – Get Away
Tabbed by Glen Yerkey AKA Sirpukealot2001

Intro thing
|----------------|----------------|----------------|----------------|
|----------------|----------------|----------------|----------------|
|----------------|----------------|----------------|----------------|
|7---------------|5---------------|2---------------|----------------|
|5---------------|3---------------|0---------------|----------------|
|----------------|----------------|----------------|----------------|
[ Tab from: http://www.guitartabs.cc/tabs/e/earshot/get_away_tab.html ]
|----------------|----------------|----------------|----------------|
|----------------|----------------|----------------|----------------|
|----------------|----------------|----------------|----------------|
|7---------------|5---------------|2---------------|----------------|
|5---------------|3---------------|0---------------|----------------|
|----------------|----------------|----------------|--0-0-0-0-0-0-0-|
|                                                p.m……………………………………….. |
that one part I don’t know what its called
|-------------------|----------------|
|-------------------|----------------|
|-------------------|----------------|
|-------------------|----------------|
|10—10-10-7-7-7-6-6-|6-9-9-9-2-2-2-2-|
|-8--8--8-5-5-5-4-4-|4-7-7-7-0-0-0-0-|
p.m…………………………………………………………….|

Chorus 
|----------------|----------------|     |----------------|------|---------|
|----------------|----------------|     |----------------|------|---------|
|----------------|----------------|     |----------------|------|---------|
|--7-----5-----7-|----5---7h8-8---|x3   |--7-----5-----7-|----3-|3--3--3--|
|0-5---0-3---0-5-|--0-3-0-5h6-6---|     |0-5---0-3---0-5-|--0-1-|1--1--1--| 
|----------------|----------------|     |----------------|------|---------|
Comments