Earshot - Get Away Chords & Tabs

 

Get Away Chords & Tabs

Earshot Chords & Tabs

Version: 1 Type: Bass Tab

Get Away Bass Tab

   
Band- earshot
Song- Get away

C#, G#, C#,F# tuning.

/= slide down
\= slide up

Tabbed by: Matt Fortuna

Verse
F#---------------------------------------------------|
C#---------------------------------------------------|
G#---------------------------------------------------|
C#--0---0-0-0-0-0-0-10/12\10-0-0--3-0-1--------------|

Pre-chorus
F#---------------------------------------------------|
C#---------------------------------------------------|
G#---------------------------------------------------|
C#--8-8-8-5-5-5-4-4-4-7-7-7-0-0-1-0------------------|

Chorus
F#---------------------------------------------------|
C#---------------------------------------------------|
G#---------------------------------------------------|
C#--0-12-0--10-0-12-0-10-0-12/13-13-13---------------|

F#---------------------------------------------------|
C#---------------------------------------------------|
G#---------------------------------------------------|
C#--0-12-0--10-0-12-0-10-0-12-0-8--------------------|

F#---------------------------------------------------|
C#---------------------------------------------------|
G#---------------------------------------------------|
C#--0-12-0--10-0-12-0-10-0-12/13-13-13---------------|

F#---------------------------------------------------|
C#---------------------------------------------------|
G#---------------------------------------------------|
C#--0-12-0--10-0-12-0-8-8-8-8-8\7--------------------|
Then back to the verse, then pre-chorus, then chorus. After all
that play this

Break
F#---------------------------------------------------|
C#---------------------------------------------------|
G#---------------------------------------------------|
C#--0-0-0-0--0-0-0-10/12-0-0-0--0-0------------------|

Break 1
F#---------------------------------------------------|
C#---------------------------------------------------|
G#---------------------------------------------------|
C#--0-0-0-0--0-0-0-10/12-0-0-0--3-0-1----------------|
[ Tab from: http://www.guitartabs.cc/tabs/e/earshot/get_away_btab.html ]
Break 2
F#---------------|
C#---------------|
G#---------------|
C#--/12-0-0-0----|
                                                  x3
F#---------------------------------------------------|
C#---------------------------------------------------|
G#---------------------------------------------------|
C#--0-0-0-0--0-0-0-8~8-8-8-8-8-10-10-10--------------|
                             these are 10's

F#---------------------------------------------------|
C#---------------------------------------------------|
G#---------------------------------------------------|
C#--0-0-0-0--12--0-12~12-----------------------------|
            these are 12's
                                                 x3
F#---------------------------------------------------|
C#---------------------------------------------------|
G#---------------------------------------------------|
C#--0-0-0-0-0-0-0-8~8-8-8-8-8-10-10-10---------------|
                            these are 10's

F#---------------------------------------------------|
C#---------------------------------------------------|
G#---------------------------------------------------|
C#--0-0-0-0-12--0-12~12-0-0-0--12--12----------------|

Then play the chorus, next play
F#---------------------------------------------------|
C#---------------------------------------------------|
G#---------------------------------------------------|
C#--0-12-0--10-0-12-0-8-8-8-8-8----------------------|
                                                x3
F#---------------------------------------------------|
C#---------------------------------------------------|
G#---------------------------------------------------|
C#--0-12-0--10-0-12-0-10-0-12/13--13-13--------------|

F#---------------------------------------------------|
C#---------------------------------------------------|
G#---------------------------------------------------|
C#--0-12-0--10-0-12-0-8-8-8-8-8----------------------|

F#---------------------------------------------------|
C#---------------------------------------------------|
G#---------------------------------------------------|
C#--0-12-0--10-0-12-0-10-0--12/13-13/----------------|