Early November - The Mountain Range In My Living Room Chords & Tabs

 

The Mountain Range In My Living Room Chords & Tabs

Early November Chords & Tabs

Version: 1 Type: Tab 0 ratings
1 star 2 stars 3 stars 4 stars 5 stars
comments

The Mountain Range In My Living Room Tab

   
-----------------------------------------------------------------------------
           The Mountain Range In My Living Room - Early November
-----------------------------------------------------------------------------
Tabbed by:Dan Smith
Email:hollywood_bam@hotmail.com

Tuning:DADGBE
Guitar1 Intro/Verse "with this being said.." notes in parentheses are optional.
you can use them to give the chord more color

e|---------------------------------------------------------------------------
B|---------------------------------------------------------------------------
G|--------------------------------------------------------(2x)---------------
D|-777-77----99----55----99----55----99----55----7-7-7-----------------------
A|-777-77----99----55----99----55----99----55----7-7-7-----------------------
D|-777-77----99----55----99----55----99----55----7-7-7-----------------------

Guitar 2 Intro/Verse
e|-12-12-12---10-10-10---9-9-9---5-5-5---------------------------------------
B|--------------------------------------------(2x)---------------------------
G|---------------------------------------------------------------------------
D|---------------------------------------------------------------------------
A|---------------------------------------------------------------------------
D|---------------------------------------------------------------------------

Guitar 1 and 2 Pre Chorus "ahh ahh ahh......all this said..."
e|---------------------------------------------------------------------------
B|---------------------------------------------------------------------------
G|-7---------7-------7-----7-------7-----------------------------------------
D|-7---------7---9---7-----7---9---7-----------------------------------------
A|-5---------x---9---5-----x---9---5-----------------------------------------
D|-5---------7---9---5-----7---9---5-----------------------------------------
[ Tab from: http://www.guitartabs.cc/tabs/e/early_november/the_mountain_range_in_my_living_room_tab.html ]
Chorus "its never been harder to fall.."
e|---------------------------------------------------------------------------
B|---------------------------------------------------------------------------
G|-7-7-7-7----7-7-7-7----7-7-7-7----7-7-7-7----------------------------------
D|-7-7-7-7----7-7-7-7----7-7-7-7----7-7-7-7---(2x)---------------------------
A|-5-5-5-5----5-5-5-5----x-x-x-x----5-5-5-5----------------------------------
D|-0-0-0-0----5-5-5-5----7-7-7-7----5-5-5-5----------------------------------

Bridge Guitar 1  (all the silly backround talking. Just listin to figure out
how many times to play it)   
e|---5h0---------5h0---------------------------------------------------------
B|-3-----------3-------------------------------------------------------------
G|---------------------------------------------------------------------------
D|---------------------------------------------------------------------------
A|---------------------------------------------------------------------------
D|---------------------------------------------------------------------------

Bridge Guitar 2
e|---------------------------------------------------------------------------
B|-2---3---------2---3-------------------------------------------------------
G|----2---2---------2---2----------------------------------------------------
D|---------------------------------------------------------------------------
A|---------------------------------------------------------------------------
D|---------------------------------------------------------------------------

Final chorus Guitar 1 is same. heres the little riff for Guitar 2 if you want it
e|---------------------------------------------------------------------------
B|---------------------------------------------------------------------------
G|---------------------------------------------------------------------------
D|-12------12--------11---------11-------11--------12------12----------------
A|-----12------12----------12-------12--------12-------12------12------------
D|---------------------------------------------------------------------------

There it is you cool dudes. email me if you want any more tabs. i got em all.
hammonton for life baby

          Dan Smith

| /  slide up
| \  slide down
| h  hammer-on
| p  pull-off
| ~  vibrato
| +  harmonic
| x  Mute note
===============================================================================
Comments